Ария - Ангельская Пыль, аккорды

Прокрутка
Тональность
Шрифт
100
 Вступление:
  Em                        C                       Em                       C                      
E||------------------------|-----------------------|------------------------|-----------------------|
B||---0-----0-----0--------|---1-----1----1--------|---0-----0-----0--------|---1-----1-------------|
G||-----0-----0-----0------|-----0-----0----0------|-----0-----0-----0------|-----0-----0-----------|
D||-------2-----2----------|-------2-----2---------|-------2-----2----------|-------2---------------|
А||------------------------|-----------------------|------------------------|-----------------------|
E||------------------------|-----------------------|------------------------|-----------------------|

 Куплет:
  Em                        C                       Em                       C                      
E||------------------------|-----------------------|------------------------|-----------------------|
B||---0-----0-----0--------|---1-----1----1--------|---0-----0-----0--------|---1-----1-------------|
G||-----0-----0-----0------|-----0-----0----0------|-----0-----0-----0------|-----0-----0-----------|
D||-------2-----2----------|-------2-----2---------|-------2-----2----------|-------2---------------|
А||------------------------|-----------------------|------------------------|-----------------------|
E||------------------------|-----------------------|------------------------|-----------------------|
  Em                        C                        G                       D
E||------------------------|-----------------------|------------------------|-----------------------|
B||---0-----0-----0--------|----1-----1----1-------|-0-----0-----0----------|---3-----3-------------|
G||-----0-----0-----0------|------0-----0----0-----|---0-----0-----0--------|-----2-----2-----------|
D||-------2-----2----------|--------2-----2--------|-----0-----0------------|-------0---------------|
A||------------------------|-----------------------|------------------------|-----------------------|
E||------------------------|-----------------------|-3----------------------|-----------------------|

 Em                    С
На  краю обрыва, за которым вечность,
 Em                       С
Ты стоишь один во власти странных грез
 Em                              C
И, простившись с миром, хочешь стать беспечным,
 G                            D
Поиграть с огнем нездешних гроз.

 Em                        C
Наконец ты счастлив как никто на свете,
 Em                    C
Ангельская пыль тебя уносит вверх.
 Em                        C
Только ей подвластны и восторг, и ветер,
 G                             D
В жидких небесах звучит твой смех.

 Припев:
   C      D    Em  Em
   Ангельская пыль.
   C    D     B7
   Это сон и быль!

   Em      C         G      D
   Безумец, беглец - дороги нет
   Em       C           D
   Ты видишь неверный свет.
   Am        F     C        G
   Твой ангел зажег мираж огня.
   Am      F        G
   Он хочет убить тебя...

На краю обрыва песня неземная,
Музыка богов и голоса богинь.
Ты паришь над миром, но торговец раем
Вынет душу из тебя за героин.

Ты устал быть птицей и сорвался камнем.
Рухнул с высоты, спасаясь от судьбы.
На краю обрыва вновь летят на пламя
Сотни мотыльков-самоубийц.

Припев.

Комментарий автора:

Первый припев лучше играть мощными ударами вниз.
Второй, как полушестреку, то есть 2 удара вниз и 1 вверх. И так на каждом новом аккорде
 
 
Свернуть Распечатать

Видео