Ария - Это рок, аккорды

Прокрутка
Тональность
Шрифт
100
INTRO:
(0:18 - 0:34)
Riff 1 (play 4 times)
Gtr.1
G|---------------------------------|
D|-----7-----5-----3-----2---------|
A|-0-0---0-0---0-0---0-0---0-0-3-2-|
E|---------------------------------|

G|---------------------------------|
D|-----7-----5-----3-----2---------|
A|-0-0---0-0---0-0---0-0---0-0-3-2-|
E|---------------------------------|

Gtr.2
E|-A5------------------------------|----------------F5------E5-|
B|---------------------------------|---------------------------|
G|---------------------------------|---------------------------|
D|-7-------------------------------|----------------3-------2--|
A|-7-------------------------------|----------------3-------2--|
E|-5-------------------------------|----------------1-------0--|

(0:35 - 1:08)
Verse 1:
Voice
E|------------------------------|------------------------------|
B|------------------------------|------------------------------|
G|------------------------------|------------------------------|
D|----5-5----------8-5----------|-5--5------------8-5----------|
A|------------8-----------------|---------8------------------7-|
E|-V nebe   nad nami       yarko - ye   zhalo   lu - -|

Gtr.1
G|---------------------------------|
D|---------------------------------|
A|---------------------------------|
E|-3-3-3-3-3-3-3-3-3-3-3-3-3-3-3-3-|

G|---------------------------------|
D|---------------------------------|
A|---------------------------------|
E|-3-3-3-3-3-3-3-3-3-3-3-3-3-3-3-3-|

Voice
E|-----------|
B|-----------|
G|-----------|
D|---7-------|
A|-----------|
E|- cha.   -|

Gtr.1
G|---------------------------------|
D|-----7-----5-----3-----2---------|
A|-0-0---0-0---0-0---0-0---0-0-3-2-|
E|---------------------------------|

G|---------------------------------|
D|-----7-----5-----3-----2---------|
A|-0-0---0-0---0-0---0-0---0-0-3-2-|
E|---------------------------------|

Gtr.2
E|-A5------------------------------|----------------F5------E5-|
B|---------------------------------|---------------------------|
G|---------------------------------|---------------------------|
D|-7-------------------------------|----------------3-------2--|
A|-7-------------------------------|----------------3-------2--|
E|-5-------------------------------|----------------1-------0--|

Voice
E|----------------------------|--------------------------------|
B|----------------------------|--------------------------------|
G|----------------------------|--------------------------------|
D|--5-----5----------8-5------|-5-----5-----------8-----5------|
A|------------8---------------|--------------8---------------7-|
E|-Me - chetsya   plamya,  stra - shen   u - dar  pa - la-|

Gtr.1
G|---------------------------------|
D|---------------------------------|
A|---------------------------------|
E|-3-3-3-3-3-3-3-3-3-3-3-3-3-3-3-3-|

G|---------------------------------|
D|---------------------------------|
A|---------------------------------|
E|-3-3-3-3-3-3-3-3-3-3-3-3-3-3-3-3-|

Voice
E|-----------|
B|-----------|
G|-----------|
D|---7-------|
A|-----------|
E|- cha.   -|

Gtr.1
G|---------------------------------|
D|-----7-----5-----3-----2---------|
A|-0-0---0-0---0-0---0-0---0-0-3-2-|
E|---------------------------------|

G|---------------------------------|
D|-----7-----5-----3-----2---------|
A|-0-0---0-0---0-0---0-0---0-0-3-2-|
E|---------------------------------|

Gtr.2
E|-A5------------------------------|----------------F5------E5-|
B|---------------------------------|---------------------------|
G|---------------------------------|---------------------------|
D|-7-------------------------------|----------------3-------2--|
A|-7-------------------------------|----------------3-------2--|
E|-5-------------------------------|----------------1-------0--|

Voice
E|---------------------------|---------------------------------|
B|---------------------------|---------------------------------|
G|---------------------------|---------------------------------|
D|---------------------------|-7-----5---------7----5----------|
A|--8------7---5-8---7-----5-|------------8--------------8-----|
E|-Slov - no bumazhnyy, tvoy dom  po - ly - ha - yet  og - -|

Gtr.1
G|---------------------------------|
D|---------------------------------|
A|---------------------------------|
E|-1-1-1-1-1-1-1-1-1-1-1-1-1-1-1-1-|

G|---------------------------------|
D|---------------------------------|
A|---------------------------------|
E|-1-1-1-1-1-1-1-1-1-1-1-1-1-1-1-1-|

Voice
E|-----------|
B|-----------|
G|-----------|
D|---7-------|
A|-----------|
E|- nyom.  -|

Gtr.1
G|---------------------------------|
D|-----7-----5-----3-----2---------|
A|-0-0---0-0---0-0---0-0---0-0-3-2-|
E|---------------------------------|

G|---------------------------------|
D|-----7-----5-----3-----2---------|
A|-0-0---0-0---0-0---0-0---0-0-3-2-|
E|---------------------------------|

Gtr.2
E|-A5------------------------------|----------------F5------E5-|
B|---------------------------------|---------------------------|
G|---------------------------------|---------------------------|
D|-7-------------------------------|----------------3-------2--|
A|-7-------------------------------|----------------3-------2--|
E|-5-------------------------------|----------------1-------0--|

Voice
E|----------------------------|--------------------------------|
B|----------------------------|--------------------------------|
G|----------------------------|--------------------------------|
D|----------------------------|-7-----5----------7-----5-------|
A|--8------7----5-8----7--5---|------------8-----------------8-|
E|-Noch' na chasah, no vok - rug vsyo svet - lo   bud - to |

Gtr.1
G|---------------------------------|
D|---------------------------------|
A|---------------------------------|
E|-1-1-1-1-1-1-1-1-1-1-1-1-1-1-1-1-|

G|---------------------------------|
D|---------------------------------|
A|---------------------------------|
E|-1-1-1-1-1-1-1-1-1-1-1-1-1-1-1-1-|

Voice
E|---------------------------------|-----------|
B|---------------------------------|-----------|
G|---------------------------------|-----------|
D|---------------------------------|--9--------|
A|---7-----------------------------|-----------|
E|- dnyom.                  Dnyom !  -|

Gtr.
E|-E5------------------------------|-------------------|
B|---------------------------------|-------------------|
G|---------------------------------|-------------------|
D|-2-------2-------2---------------|-2-------2-------2-|
A|-2-------2-------2---------------|-2-------2-------2-|
E|-0-------0-------0---------------|-0-------0-------0-|
(1:08 - 1:42)
CHORUS:
Voice
E|---------------------------------|-----------|
B|---------------------------------|-----------|
G|---------------------------------|-----------|
D|---------------------------------|--4--------|
A|---7---------4---------------0---|-----------|
E|- Groz  - nyy        pro - rok    -|

Gtr.1
E|-0-----0-----0---0-----0-----0---|
B|---2-----2-----2---2-----2-----2-|
G|-----2-----2---------2-----2-----|
D|---------------------------------|
A|---------------------------------|
E|---------------------------------|

E|---------------------------------|
B|---------------------------------|
G|-2-----2-----2---2-----2-----2---|
D|---4-----4-----4---4-----4-----4-|
A|-----5-----5---------5-----5-----|
E|---------------------------------|

Voice
E|---------------------------------|---------------------------|
B|---------------------------------|---------------------------|
G|---------------------------------|---------------------------|
D|---------------------------------|---------------------------|
A|---7---------4-------0-----------|--2----------------2-----4-|
E|- vy  -  chis - lit'       smog .      My schi - |

Gtr.1
E|-0-----0-----0---0-----0-----0---|
B|---2-----2-----2---2-----2-----2-|
G|-----2-----2---------2-----2-----|
D|---------------------------------|
A|---------------------------------|
E|---------------------------------|

E|-2-----2-----2---2-----2-----2---|
B|---3-----3-----3---3-----3-----3-|
G|-----4-----4---------4-----4-----|
D|---------------------------------|
A|---------------------------------|
E|---------------------------------|

Voice
E|------------------------------|------------------------------|
B|------------------------------|------------------------------|
G|------------------------------|------------------------------|
D|------------------------------|------------------------------|
A|---5-5-------5---5-----5----7-|--8-------8----8-8-----7----5-|
E|- tali,  chto  on  nas sme - shit,  kak payatz Sha - pi-|

Gtr.2
E|-D5--------------------------E5--|-F5-|
B|---------------------------------|----|
G|---------------------------------|----|
D|-----------------------------2---|-3--|
A|--5--------------------------2---|-3--|
E|--5--------------------------0---|-1--|

Voice
E|---------|
B|---------|
G|---------|
D|---------|
A|---7-----|
E|- to.  -|

Gtr.2
E|-E5------------------------------|-------------------|
B|---------------------------------|-------------------|
G|---------------------------------|-------------------|
D|-2-------2-------2---------------|-2-------2-------2-|
A|-2-------2-------2---------------|-2-------2-------2-|
E|-0-------0-------0---------------|-0-------0-------0-|

(1:42 - 2:16) Verse 2
(2:16 - 2:49) CHORUS
(2:50 - 2:58) Repeat Riff 1 (2 times)
(2:58 - 3:48)
SOLO:
E|---------------------------------|
B|-10b12~~~~-------10b12~~~~-------|
G|---------------------------------|
D|---------------------------------|
A|---------------------------------|
E|---------------------------------|

E|-10p9p7-------10p9p7-------10p9p7-------10p9p7-------|
B|-------10p9p7-------10p9p7-------10p9p7-------10p9p7-|
G|-----------------------------------------------------|
D|-----------------------------------------------------|
A|-----------------------------------------------------|
E|-----------------------------------------------------|

E|---------------------------------|-----------------|
B|---------------------------------|-----------------|
G|-9---------------9---------------|---7-----7-----7-|
D|---------------------------------|-9-7---9-7---9-7-|
A|---------------------------------|-----------------|
E|---------------------------------|-----------------|

E|-10p7-10p7-10p7-10p7-10p7-10p7-10p7-|
B|------------------------------------|
G|------------------------------------|
D|------------------------------------|
A|------------------------------------|
E|------------------------------------|

E|-10p7-10p7-10p7-9p6-9p6-8p5-8p5-7p4-7p4-6p3-6p3--- ... -|
B|--------------------------------------------------------|
G|--------------------------------------------------------|
D|--------------------------------------------------------|
A|--------------------------------------------------------|
E|--------------------------------------------------------|

E|---...---------------------------|-...-|
B|---------------------------------|-----|
G|---------------------------------|-----|
D|---------------------------------|-----|
A|---------------------------------|-----|
E|---------------------------------|-----|

E|---------------------------------|------------------------12-|
B|---------------------------------|---------10------12--------|
G|------------------9------11------|-12------------------------|
D|--10------12---------------------|---------------------------|
A|---------------------------------|---------------------------|
E|---------------------------------|---------------------------|

E|-11----------------------12------|-11-|
B|---------------------------------|----|
G|---------------------------------|----|
D|---------------------------------|----|
A|---------------------------------|----|
E|---------------------------------|----|

E|---------------------------------|------------------------12-|
B|---------------------------------|---------10------12--------|
G|------------------9------11------|-12------------------------|
D|--10------12---------------------|---------------------------|
A|---------------------------------|---------------------------|
E|---------------------------------|---------------------------|

E|-11----------------------12------|-11-|
B|---------------------------------|----|
G|---------------------------------|----|
D|---------------------------------|----|
A|---------------------------------|----|
E|---------------------------------|----|

The key changes at this point.
Play the following Verse 3 and Chorus the whole tone
higher than before.
(3:48 - 4:22) Verse 3
(4:22 - 5:33) CHORUS couple of times
(5:33 - 5:50) OUTRO
 
 

Видео