Ария - Ночь короче дня, аккорды

Прокрутка
Тональность
Шрифт
100
Chor:  riff
       E D E F# F
       Em D Em D

Intro:
Bass, Solo

Bass:
4|-9-9-9-~-7-7-7-~-5-5-5-~-9-9-9-~-| 2
5|--7-7-7~--5-5-5~--3-3-3~--7-7-7~-|time

Solo:
2|--8----7-8-----7-8-10-----| 8 time
3|--------------------------|

Em

Verse:
Em                    F# F
Мне не до сна палач придет на рассве-те
Em              C       D
И звук шагов за дверью бьет словно нож
Em                      F# F
Но в клетку входит не гонец верной смерти
Em            C  D
А, в рясе черной, Святая Ложь
Святой отец принес во тьму слово божье
И вечной жизни мне сулил чудеса
'Ты - смертник, и вернуться к Богу ты должен'
Шептал священник и лгал в глаза

 Bm
'Кайся, сын
   C
Земная жизнь
   D       Em
Прелюдия к другой
 Bm
На стене
  C
Своей тюрьмы
 D         B C D
Увидишь лик святой!'
Chorus:

Riff:
   Em                D
1|-----7-5-3-2-----7-5-3-2-----5-3-2-3-5-3-2--|
2|--5------------5-----------3----------------|
3|--------------------------------------------|

riff
 Em
Ночь короче дня
День убьет меня
 D              Em  F# F
Мир иллюзий в нем сгорает
 Em
Ночь короче дня
День убьет меня
 D        C   D    Em
Все живое исчезает как и я...

Solo 1:
2|--8-7-5--3/5--8-7-5----8-7-5--3/5--8-7-5-|
3|-----------------------------------------|

2|--8-7-5--3/5--8-7-5----8-7-5--3/5--8-7-5-|
3|-----------------------------------------|
2|--8-7-5-------8-7-5----8-7-5-------8-7-5-|

3|---------5--------------------5----------|
2|--8-7-5--3/5--8-7-5----8-7-5--3/5--8-7-5-|
3|-----------------------------------------|

 Блаженство рая я оставлю для нищих
 У нищих духом должен быть Царь и Бог
 Я - тварь земная и на небе я лишний
 И к черту вечность, какой в ней прок?
 Пускай я должен испытать муки ада
 Пускай толпа на казнь бежит со всех ног
 Мне крики ненависти станут наградой
 Я буду в смертный час не одинок
 Луч зари
 К стене приник
 Я слышу звон ключей
 Вот и все...
 Палач мой здесь
 Со смертью на плече

Chorus.
Solo 1.

1|-----7---5----------7-----5--------|
2|--5----7---8-7----5---7-8---8-7----|
3|----------------7------------------|
4|-----------------------------------|

1|-----7---5----------7-----5--------|
2|--5----7---8-7----5---7-8---8-7----|
3|----------------7------------------|
4|-----------------------------------|

1|-----7---5----------7-----5--------|
2|--5----7---8-7----5---7-8---8-7----|
3|----------------7------------------|
4|-----------------------------------|

1|-----8---5------------8-----5------|
2|--6----8---8-7----6-8---6-8---8-7--|
3|-----------------------------------|
4|-----------------------------------|

Last:
2|---7----5-7---5-7-8---| x time
 
 

Видео