Ария - Закат, аккорды

Прокрутка
Тональность
Шрифт
100
Intro:
E|------------------------------------------------------------|
B|----0-----0-----0-------0-------0-------0-------0-------0---|
G|----0-----0-----0-------0-------0-------0-------0-------0---|
D|--2---2-2---2-2---2---4---4---2---2---2---2---2---2---4---4-|
A|-------------3------2-----------------------3-------2-------|
E|-0-----0--------------------0-------0-----------------------|

В куплете перебор такой: б4341234 - все кроме D
D вот так: 43231232

Em    Am      D         Em
Я вижу, как закат стекла оконные плавит,
Em         Am       F#        B7+
День прожит, а ночь оставит тени снов в углах.
Мне не вернуть назад серую птицу печали,
Все в прошлом, так быстро тают замки в облаках.

B7+ (стоится так: 021202, бас-5стр.)

Припев: /боем/
   E        Am
   Там все живы, кто любил меня,
   C                      B
   Где восход - как праздник бесконечной жизни,
   E        Am
   Там нет счета рекам и морям,
   C                   B
   Но по ним нельзя доплыть домой.

Intro

Вновь примирит все тьма, даже алмазы и пепел,
Друг равен врагу в итоге, а итог один...
Два солнца у меня на этом и прошлом свете,
Их вместе собой укроет горько-сладкий дым.

Припев

Маленький проигрыш:
E|-------------------------------------------|
B|-------------------------------------------|
G|-0--2--3--2^3--0--(здесь уже начинается G)-|
D|-------------------------------------------|
A|-------------------------------------------|
E|-------------------------------------------|
 2^3 - одинарная трель

G                 D
 Возьми меня с собой, пурпурная река,
G               D
 Прочь унеси меня с собой, закат.
Am                C
 Тоска о том, что было, рвется через край,
Bm                 C
 Под крики серых птичьих стай.

Intro

Здесь бой такой - большим пальцем плавно перебераем все
струны от 6 до 1

Em    Am      D         Em
Я вижу, как закат стекла оконные плавит,
Em         Am       F#   B      Em
День прожит, а ночь оставит тени снов в углах.
 
 
Свернуть Распечатать

Видео