Ария - Воля и разум, аккорды

Прокрутка
Тональность
Шрифт
100
Gtr1:
E||-------------------------------------------------------|
B||-------------------------------------------------------|
G||-------------------------------------------------------|
D||-----9--------9-----11--12--------9--------9-----7--9--|
A||-----7--------7-----9---10--------7--------7-----5--7--|
E||--0-----0--0-----0-------------0-----0--0-----0--------|
        в глубокой шахте                который год
                                                          
---------------------------------------------------------|
---------------------------------------------------------|
---------------------------------------------------------|
-----9--------9-----11--12-----9--------9----------------|
-----7--------7-----9---10-----7--------7----------------|
--0-----0--0-----0----------------0--0-------------------|
   таится чудище змей
                                                        
-------------------------------------------------------|
-------------------------------------------------------|
-------------------------------------------------------|
-----9--------9-----11--12--------9--------9-----7--9--|
-----7--------7-----9---10--------7--------7-----5--7--|
--0-----0--0-----0-------------0-----0--0-----0--------|
стальные нервы                 стальная плоть
                             
---------------------------------------------------------|
---------------------------------------------------------|
---------------------------------------------------------|
-----9--------9-----11--12-----9--------9----------------|
-----7--------7-----9---10-----7--------7----------------|
--0-----0--0-----0----------------0--0-------------------|
  стальная хватка когтей.............................т.д
                                                          
---------------------------------------------------------|
---------------------------------------------------------|
---------------------------------7--7--7--7--9--9--9--9--|
--10--10--10--10--7--7--7--7-----7--7--7--7--9--9--9--9--|
--10--10--10--10--7--7--7--7-----5--5--5--5--7--7--7--7--|
--8---8---8---8---5--5--5--5-----------------------------|
  все     во            что      ты на веки влюблен
            
---------------------------------------------|
---------------------------------------------|
------------------------------|--7--7--7--7--7--7--7--7--|
--10--10--10--10--7--7--7--7--|--7--7--7--7--7--7--7--7--|
--10--10--10--10--7--7--7--7--|--5--5--5--5--5--5--5--5--|
--8---8---8---8---5--5--5--5-----------------|
уничтожит                        разом

                                                          
---------------------------------------------------------|
---------------------------------------------------------|
---------------------------------7--7--7--7--9--9--9--9--|
--10--10--10--10--7--7--7--7-----7--7--7--7--9--9--9--9--|
--10--10--10--10--7--7--7--7-----5--5--5--5--7--7--7--7--|
--8---8---8---8---5--5--5--5-----------------------------|
тыщеглавый                      убийца      дракон

----------------------------------------||
----------------------------------------||
----------------------------------------||
--7--7--7--7--7--7--7--9----------------||
--7--7--7--7--7--7--7--9----------------||
--5--5--5--5--5--5--5--7----------------||
должен быть повержен он
 
 
Свернуть Распечатать

Видео