Ария - Машина смерти, аккорды

Прокрутка
Тональность
Шрифт
100
Рифф 1:
Гит.
E|-------------------------------------|
B|-------------------------------------|
G|-------------------------------------|
D|-------------------------------------|
A|-------------7-----------------------|
E|-3-p0-0-7-p0---0-0-3-p0-0-6-p0-6-5~~-|

E|-----------------------------------|
B|-----------------------------------|
G|-----------------------------------|
D|-----------------------------------|
A|-------------7---------------------|
E|-3-p0-0-7-p0----0--0--3--0--6--5~~-|

Гит.
E|-------------------------------------------------|
B|-------------------------------------------------|
G|-------------------------------------------------|
D|-------------------------------------------------|
A|----------------7--------------------------------|
E|-3-p0--0--7-p0-----0--0--3-p0--0--6-p0--6--5~~~~-|

E|-------------------------------------------------|
B|-------------------------------------------------|
G|-------------------------------------------------|
D|-------------------------------------------------|
A|-6--------5--------4--------------------------2--|
E|----7--0-----6--0-----5--0--0--3--6-----3-----0--|

Куплет:
Вокал
E|-------------------------------------------------------------|
B|-------------------------------------------------------------|
G|-------4-----4----5--4---------------------------------------|
D|-------------------------------7-------------------------5---|
A|------------------------------------------7------7----7------|
E|---- Ма - ши - на смер -  ти      со - шла с ума  -|

Гит.
E|-------------------------------------------------|
B|-------------------------------------------------|
G|-------------------------------------------------|
D|-------------------------------------------------|
A|(2)-------------------2-----------------------2--|
E|(0)-0--0--0--0--0--0--0-----0--0--0--0--0--0--0--|

E|-------------------------------------------------|
B|-------------------------------------------------|
G|-------------------------------------------------|
D|-------------------------------------------------|
A|(2)-------------------2-----------------5--6--7--|
E|(0)-0--0--0--0--0--0--0-----0--0--0--0--3--4--5--|

Вокал
E|-------------------------------------------------------|
B|-------------------------------------------------------|
G|-------5-----5----5--4------------------------4--------|
D|-------------------------------7-----5--7--------------|
A|-------------------------------------------------------|
E|----  о - на   летит,   сме -  тая   всех.   -|

Гит.
E|------------------------------------------------|
B|------------------------------------------------|
G|------------------------------------------------|
D|------------------------------------------------|
A|(7)----------7--5-----3-----------------------2-|
E|(5)-5--5--5--5--3-----1-----1--1--1--1--1--1--0-|

E|------------------------------------------------|
B|------------------------------------------------|
G|------------------------------------------------|
D|----------------------------4--4-/5--5-4--4-----|
A|(2)----------2--------2-----2--2-/3--3-2--2--2--|
E|(0)-0--0--0--0--0--0--0-----------------------0-|
...
Предприпев:
Вокал
E|-------------------------------------------------------------|
B|----5----5-----7--7-------8---5---5-----7-----7--8-----5-----|
G|-------------------------------------------------------------|
D|-------------------------------------------------------------|
A|-------------------------------------------------------------|
E|- Мы здесь сегод -  ня, а за -втра   будем   там. -|

Гит.
E|-------------------------------------------------|
B|-------------------------------------------------|
G|(2)-------------------4-----------5--------------|
D|(2)-------------------4-----------5-----------2--|
A|(0)-------------------2-----------3-----------2--|
E|----------------------------------------------0--|

E|-------------------------------------------------|
B|-------------------------------------------------|
G|----------------------------------------------5--|
D|(2)-------------------4-----------5-----------5--|
A|(2)-------------------4-----------5-----------3--|
E|(0)-------------------2-----------3--------------|

Вокал
E|--------------------------------5----------------------------|
B|----5-----5-----7--7------5--------8---8---7---8--8-----7----|
G|-------------------------------------------------------------|
D|-------------------------------------------------------------|
A|-------------------------------------------------------------|
E|- где тошно от огня чертяяяааам! --------- Мы бу - дем -|

Гит.
E|---------------------------------|---------------------------|
B|------------------------------4--|(4)------------------------|
G|(5)------2--------------------4--|(4)-------------------4--R-|
D|(5)------2--------------------4--|(4)-------------------4--E-|
A|(3)------0--------------------2--|(2)-------------------2--S-|
E|---------------------------------|-------------------------T-|

Припев:
Вокал
E|---------------------------------------5---------------------|
B|--7----5--5---7--8--8--8----7--7-----5---8-----7-5--8--8--7--|
G|-------------------------------------------------------------|
D|-------------------------------------------------------------|
A|-------------------------------------------------------------|
E| драться на земле, под солнцем и в кромешной тьме. Мы будем |

Гит.
E|---------------|---------------------------------------------|
B|---------------|---------------------------------------------|
G|---------------|---------------------------------------------|
D|-9-----7-----5-|(5)----------------2-----------------------5-|
A|-7-----5-----3-|(3)----------------0--------------0--2-----3-|
E|---------------|---------------------------------------------|

Вокал
E|-----------------------------------------5-------------------|
B|--7----5--5-----------8--8--7---7-----5-----7--8---8--8--7---|
G|-------------7--7--4-----------------------------------------|
D|-------------------------------------------------------------|
A|-------------------------------------------------------------|
E| драться в небеса ах. Мы будем  драться до конца. Мы будем -|

Гит.
E|-------------------------|-----------------------------------|
B|-------------------------|-----------------------------------|
G|-------------------------|-----------------------------------|
D|(5)--------------------5-|(5)------7-----------8-----------9-|
A|(3)--------------2-----3-|(3)------5-----------6-----------7-|
E|--------3--2-----0-------|-----------------------------------|
...
Соло:
Гит.1
E|------------------------------------|------------------------|
B|-7--8--7-----------------7--8--7----|-7--8--7-----7--8--7----|
G|----------9-----------------------9-|----------9-----------9-|
D|------------------------------------|------------------------|
A|------------------------------------|------------------------|
E|------------------------------------|------------------------|

Гит.2
E|-------------------------------------------------|
B|-------------------------------------------------|
G|-------------------------------------------------|
D|-------------------------------------------------|
A|-7--7--7--7--7--7--7--7--7--7--7--7--7--7--7--7--|
E|-------------------------------------------------|

E|-------------------------------------------------|
B|-------------------------------------------------|
G|-------------------------------------------------|
D|-------------------------------------------------|
A|-7--7--7--7--7--7--7--7--7--7--7--7--7--7--7--7--|
E|-------------------------------------------------|

Гит.1
E|-------------------------------------------------|
B|-4--5--4-----------------4--5--4-----------------|
G|----------6~~~~~~~~~~-------------6~~~~~~~~~~----|
D|-------------------------------------------------|
A|-------------------------------------------------|
E|-------------------------------------------------|

E|-------------------------------------------------|
B|-4--5--4-----------------4--5--4-----------------|
G|----------6~~~~~~~~~~-------------6~~~~~~~~~~----|
D|-------------------------------------------------|
A|-------------------------------------------------|
E|-------------------------------------------------|

Гит.2
E|-------------------------------------------------|
B|-------------------------------------------------|
G|-------------------------------------------------|
D|-------------------------------------------------|
A|-4--4--4--4--4--4--4--4--4--4--4--4--4--4--4--4--|
E|-------------------------------------------------|

E|-------------------------------------------------|
B|-------------------------------------------------|
G|-------------------------------------------------|
D|-------------------------------------------------|
A|-4--4--4--4--4--4--4--4--4--4--4--4--4--4--4--4--|
E|-------------------------------------------------|

Гит.1
E|-------------------------T--------|
B|------------------T------10p5h6h8-|
G|----------T-------9p4h5h7---------|
D|-T--------9p4h5h7-----------------|
A|-10p4h5h7-------------------------|
E|----------------------------------|

E|-10p5h6h8-10p8p6p5---------T---------|
B|------------------8p6p5h6h8-10p8p6p5-|
G|-------------------------------------|
D|-------------------------------------| ...
A|-------------------------------------|
E|-------------------------------------|

Гит.2
E|-------------------------------------------------------------|
B|-------------------------------------------------------------|
G|-------------------------------------------------------------|
D|-------------------------------------------------------------|
A|-3---3---3---3---3---3---3---3---3---3---3---3---3---3--3--3-|
E|-------------------------------------------------------------|
 
 

Видео