Ария - Возьми мое сердце, аккорды

Прокрутка
Тональность
Шрифт
100
Intro:
E|---------|---------|---------|---------|
B|-------3-|-------3-|---------|---------|
G|-----2---|-----1---|-------2-|-------1-|
D|-0-3-----|-0-2-----|-0-2-3---|-0-2-3---|
A|---------|---------|---------|---------|
E|---------|---------|---------|---------|

(перебор в скобках)
Dm (43231)     A (53231) F (63231)   A (53231)
Слепая ночь легла у ног и не пускает за порог
Dm (43231)     A (53231) F (63231)   A (53231)
Брожу по дому как во сне, но мне покоя нет нигде

  барре III             Dm
E|---------3-----------3---------------1-----------1-----|
B|-----3-----------------3---------3-----------------3---|
G|---3---3-----------------3-----2---2----1------------2-|
D|-----------------------------0-------------------------|
A|------------4------------------------------------------|
E|-3-----------------------------------------------------|
Тупая боль пробьет висок, и пальцы лягут на курок

  барре III
E|---------3-----------3-----|
B|-----3-----------------3---|
G|---3---3-----------------3-|
D|---------------------------|
A|------------4--------------|
E|-3-------------------------|
                     B       A
А в зеркалах кочнется призрак, призрак любви

Припев:
       Dm           F
Возьми мое сердце, возьми мою душу,
      Gm                  C
Я так одинок в этот час, что хочу умереть,
       Dm              F
Мне некуда деться, свой мир я разрушил,
         Gm                  C
По мне плачет только свеча, на холодной заре...

Dm (43231)     A (53231) F (63231)   A (53231)
Ты умерла в дождливый день, и тени плыли по воде,
Dm (43231)     A (53231) F (63231)   A (53231)
Я смерть увидел в первый раз, её величие и грязь.

 барре III             Dm
E|---------3-----------3---------------1-----------1-----|
B|-----3-----------------3---------3-----------------3---|
G|---3---3-----------------3-----2---2----1------------2-|
D|-----------------------------0-------------------------|
A|------------4------------------------------------------|
E|-3-----------------------------------------------------|
В твоих глазах застыла боль, я разделю её с тобой,

  барре III
E|---------3-----------3-----|
B|-----3-----------------3---|
G|---3---3-----------------3-|
D|---------------------------|
A|------------4--------------|
E|-3-------------------------|
                     B       A
А в зеркалах качнется призрак, призрак любви.

Припев:
       Dm           F
Возьми мое сердце, возьми мою душу,
      Gm                  C
Я так одинок в этот час, что хочу умереть,
       Dm              F
Мне некуда деться, свой мир я разрушил,
         Gm                  C
По мне плачет только свеча, на холодной заре...

F     B     C     F       B   C
Я слышу утренний колокол, он славит праздник,
F     B     C     Dm             A
И звоном небо расколото, ты теперь в царстве вечного сна.
F     B     C     F       B   C
Я слышу утренний колокол, он беса дразнит,
F     B     C     Dm             A
И сыпет медью и золотом,  ты теперь в царстве вечного сна.

       Dm
Возьми мое сердце...
 
 
Свернуть Распечатать

Видео