Ария - Возьми мое сердце, аккорды

Прокрутка
Тональность
Шрифт
100
Am        D
Слепая ночь легла у ног
   Gm    F
И не пускает за порог
Am        D
Брожу по дому как во сне
       Gm F
о мне покоя нет нигде
Am         D
Тупая боль пробьет висок
       Gm  F
И пальцы лягут на курок
      Am   D
А в зеркалах качнется призрак
F       E
Призрак любви

Припев:
Возьми мое сердце
Возьми мою душу
Я так одинок в этот час
Что хочу умереть
Мне некуда деться
Свой мир я разрушил
По мне плачет только свеча
а холодной заре

Ты умерла в дождливый день
И тени плыли по воде
Я смерть увидел в первый раз
Ее величие и грязь
В твоих глазах застыла боль
Я разделю ее с тобой
А в зеркалах качнется призрак
Призрак любви

Я слышу утренний колокол
Он славит праздник
И сыпет медью и золотом
Ты теперь в царстве вечного сна

Я слышу утренний колокол
Он бесов дразднит
И звоном небо расколото
а земле я любил лишь тебя...

...Возьми мое сердце.
Возьми мое сердце
Вступление

  Dm           Dsus2         Dsus4         Dm
E|----------1--|------------0--|-----------3--|--------------1-|
B|-------3-----|---------3-----|--------3-----|----------3-----|
G|----2--------|-----2---------|-----2--------|------2---------|
D|-0-----------|--0------------|-0------------|--0-------------|
А|-------------|---------------|--------------|----------------|
E|-------------|---------------|--------------|----------------|

После
  Gm         Dm        Gm         F    А
E|---------------|-------------|--------------|--1------0------|
B|---------------|-------------|--------------|--1------2------|
G|---------------|-------------|--------------|--2------2------|
D|---------------|-------------|--------------|--3------2------|
А|---------------|-------------|--------------|--3------0------|
E|---------------|-------------|--------------|--1-------------|

Припев:
         Dm           F
  Возьми мое сердце, возьми мою душу,
         Gm                  C
  Я так одинок в этот час, что хочу умереть,
          Dm              F
  Мне некуда деться, свой мир я разрушил,
            Gm                  C
  По мне плачет только свеча, на холодной заре...

II Куплет.

Припев.

   F      B     C     F       B   C
   Я слышу утрений колокол, он славит праздник,
   F       B     C   F               B     C
   И звоном небо расколото, ты теперь в царстве вечного сна.
   F      B     C    F       B C
   Я слышу утрений колокол, он беса дразнит,
   F       B     C     Dm              F     A
   И сыпет медью и золотом,  ты теперь в царстве вечного сна.

         Dm        Dsus2       Dsus4         D5
 Возьми мое сердцееееееееееееееееееееееее......
E|-------------1-|----------0-|-----------3---2------|---------|
B|----------3----|-------3----|--------3----------3--|----3----|
G|-------2-------|----2-------|-----2----------------|---2-----|
D|----0----------|-0----------|-0--------------------|--0------|
А|---------------|------------|----------------------|---------|
E|---------------|------------|----------------------|---------|
 
 

Видео