Ария - Я свободен, аккорды

Прокрутка
Тональность
Шрифт
100
1-й КУПЛЕТ: 
Вок.
E|----------------------------------|
B|----------------------------------|
G|----------------------------------|
D|--------------------------8----6--|
А|----------------------------------|
E|------------------------ На - до  |

Гит.
E|--3-------3-------3-------3-------|
B|--4-------4-------4-------4-------|
G|--5-------5-------5-------5-------|
D|----------------------------------|
А|----------------------------------|
E|----------------------------------|

Вок.
E|-------------------------------------------------------|
B|---------------------8-8---9----8-6--9----8----8-----8-|
G|----------5----7-8-------------------------------------|
D|----5-5------------------------------------------------|
А|-------------------------------------------------------|
E|- мною ти - шина, небо пол - ное дождя,   Дождь про|

Гит.
E|--3-------3-------3-------3--|-4---4---3-------3-------|
B|--4-------4-------4-------4--|-6---6---4-------4-------|
G|--5-------5-------5-------5--|-5---5---5-------5-------|
D|-----------------------------|-------------------------|
А|-----------------------------|-------------------------|
E|-----------------------------|-------------------------|

Вок.
E|-------------------------------------------------------|
B|--9-8-----6----9--8---8--6-------6---------------------|
G|------------------------------8-------8--7-------------|
D|-----------------------------------------------8---6---|
А|-------------------------------------------------------|
E| ходит сквозь меня, но бо - ли больше нет, Под хо - |

Гит.
E|--4-------4-------3-------3--|-1-----1-----1-----1-----|
B|--6-------6-------4-------4--|-3-----3-----3-----3-----|
G|--5-------5-------5-------5--|-3-----3-----3-----3-----|
D|-----------------------------|-------------------------|
А|-----------------------------|-------------------------|
E|-----------------------------|-------------------------|

Вок.
E|-------------------------------------------------------|
B|---------------------8-8----9--8--6--9---8----8----8---|
G|---------5-7----8--------------------------------------|
D|--5--5-------------------------------------------------|
А|-------------------------------------------------------|
E| лодный шепот звезд мы сожгли последний мост, и все в |

Гит.
E|--3-------3-------3-------3--|-4------4------3-------3-|
B|--4-------4-------4-------4--|-6------6------4-------4-|
G|--5-------5-------5-------5--|-5------5------5-------5-|
D|-----------------------------|-------------------------|
А|-----------------------------|-------------------------|
E|-----------------------------|-------------------------|

Вок.
E|-------------------------------------------------------|
B|--9---8---6--9-8--------8--6------6--------6-----------|
G|------------------------------8------8--7-------8---7--|
D|-------------------------------------------------------|
А|-------------------------------------------------------|
E| бездну сорвалось  - свободным стану я от зла  и |

Гин.
E|-4---4-------3-------3-------|-1---1----1------1-------|
B|-6---6-------4-------4-------|-3---3----3------3-------|
G|-5---5-------5-------5-------|-3---3----3------3-------|
D|-----------------------------|-------------------------|
А|-----------------------------|-------------------------|
E|-----------------------------|-------------------------|

Вок.
E|-------------------------------------------------------|
B|-------------------------------------------------------|
G|-8---7--5---5---7---5----4------4---5--7------8----7---|
D|------------------------------5-------------5----------|
А|-------------------------------------------------------|
E| от добра, Мо - я ду - ша  была на лез - вии  но - |

Гит.
E|-------------------------|-----------------------------|
B|-------------------------|-3-------3---3-------3-------|
G|--5-------5---5--5-------|-4-------4---4-------4-------|
D|--6-------6---6--6-------|-5-------5---5-------5-------|
А|--6-------6---6--6-------|-5-------5---5-------5-------|
E|-------------------------|-----------------------------|

Вок.
E|-------------------------------------------------------|
B|-------------------------------------------------------|
G|--5----------------------------------------------------|
D|-------------------------------------------------------|
А|-------------------------------------------------------|
E|--жа...------------------------------------------------|

Гит.
E|-3-----3-----3-----3-----|-6-----6-----6---------------|
B|-4-----4-----4-----4-----|-8-----8-----6---------------|
G|-5-|-|-5-|-|-5-|-|-5-|-|-|-8-|-|-8-|-|-7---------------|
D|-5-|-|-5-|-|-5-|-|-5-|-|-|-8-|-|-8-|-|-8---------------|
А|-3-|-|-3-|-|-3-|-|-3-|-|-|-6-|-|-6-|-|-8---------------|
E|-3-----3-----3-----3-----|-6-----6-----6---------------|
                Я бы
Гит.
E|-3-----3-----3-----3-----|-6-----6-----6---------------|
B|-4-----4-----4-----4-----|-8-----8-----6---------------|
G|-5-|-|-5-|-|-5-|-|-5-|-|-|-8-|-|-8-|-|-7---------------|
D|-5-|-|-5-|-|-5-|-|-5-|-|-|-8-|-|-8-|-|-8---------------|
А|-3-|-|-3-|-|-3-|-|-3-|-|-|-6-|-|-6-|-|-8---------------|
E|-3-----3-----3-----3-----|-6-----6-----6---------------|

2-й КУПЛЕТ:

Вок.
E|-------------------------------------------------------|
B|-----------------------8--8--9----8----6--9--8---8---8-|
G|----------5----7--8------------------------------------|
D|--5-----5----------------------------------------------|
А|-------------------------------------------------------|
E| мог с тобо - ю быть, я бы мог про все забыть, я бы |

Гит.
E|--3------3-----3-----3-------|-4-----4-----3-----3-----|
B|--4------4-----4-----4-------|-6-----6-----4-----4-----|
G|--5--|-|-5-|-|-5-|-|-5---|-|-|-5-|-|-5-|-|-5-|-|-5-|-|-|
D|--5--|-|-5-|-|-5-|-|-5---|-|-|-4-|-|-4-|-|-5-|-|-5-|-|-|
А|--3--|-|-3-|-|-3-|-|-3---|-|-|-4-|-|-4-|-|-3-|-|-3-|-|-|
E|--3------3-----3-----3-------|-4-----4-----3-----3-----|

Вок. 
   E|-------------------------------------------------------|
   B|--9----8--6-----9-8------8-6-------6-------------------|
   G|--------------------------------8-------8--7-----------|
   D|--------------------------------------------------8-6--|
   А|-------------------------------------------------------|
   E| иог тебя   любить, но э - то лишь игра. В шуме |

Гит. 
   E|--4-------4------3-----3-----|-1-----1-----1-----1-----|
   B|--6-------6------4-----4-----|-3-----3-----3-----3-----|
   G|--5---|-|-5--|-|-5-|-|-5-|-|-|-3-|-|-3-|-|-3-|-|-3-|-|-|
   D|--4---|-|-4--|-|-5-|-|-5-|-|-|-3-|-|-3-|-|-3-|-|-3-|-|-|
   А|--4---|-|-4--|-|-3-|-|-3-|-|-|-1-|-|-1-|-|-1-|-|-1-|-|-|
   E|--4-------4------3-----3-----|-1-----1-----1-----1-----|

Вок. 
   E|---------------------------------------8---------------|
   B|---------------------8--8-9-8---6---------------8--8---|
   G|----------5-----7-8---------------8--------------------|
   D|--5--5-------------------------------------------------|
   А|-------------------------------------------------------|
   E| ветра  за  спиной я забуду голос твой,    и от |

Гит. 
   E|--3-------3------3-----3-----|-4-----4-----3-----3-----|
   B|--4-------4------4-----4-----|-6-----6-----4-----4-----|
   G|--5---|-|-5--|-|-5-|-|-5-|-|-|-5-|-|-5-|-|-5-|-|-5-|-|-|
   D|--5---|-|-5--|-|-5-|-|-5-|-|-|-4-|-|-4-|-|-5-|-|-5-|-|-|
   А|--3---|-|-3--|-|-3-|-|-3-|-|-|-4-|-|-4-|-|-3-|-|-3-|-|-|
   E|--3-------3------3-----3-----|-4-----4-----3-----3-----|

Вок. 
   E|-------------------------------------------------------|
   B|-9----8--6---9--8------8--6-------6--------------------|
   G|--------------------------------8---8----7-----8----7--|
   D|-------------------------------------------------------|
   А|-------------------------------------------------------|
   E|той любви земной, что нас сжигала в прах, и я схо- |

Гит. 
   E|-4-------4-----3-----3-----|-1-----1-----1-----1-------|
   B|-6-------6-----4-----4-----|-3-----3-----3-----3-------|
   G|-5---|-|-5-|-|-5-|-|-5-|-|-|-3-|-|-3-|-|-3-|-|-3---|-|-|
   D|-4---|-|-4-|-|-5-|-|-5-|-|-|-3-|-|-3-|-|-3-|-|-3---|-|-|
   А|-4---|-|-4-|-|-3-|-|-3-|-|-|-1-|-|-1-|-|-1-|-|-1---|-|-|
   E|-4-------4-----3-----3-----|-1-----1-----1-----1-------|

Вок. 
   E|-------------------------------------------------------|
   B|-------------------------------------------------------|
   G|--8----7-5------5---7---5----4-----4----5--7------8--7-|
   D|--------------------------------5-------------5--------|
   А|-------------------------------------------------------|
   E| дил с ума. В мо - ей ду - ше нет больше места для те-|

Гит. 
   E|-4-----4-----4-----4-----|-3-----3-----3-------3-------|
   B|-4-----4-----4-----4-----|-3-----3-----3-------3-------|
   G|-5-|-|-5-|-|-5-|-|-5-|-|-|-4-|-|-4-|-|-4-|---|-4---|-|-|
   D|-6-|-|-6-|-|-6-|-|-6-|-|-|-5-|-|-5-|-|-5-|---|-5---|-|-|
   А|-6-|-|-6-|-|-6-|-|-6-|-|-|-5-|-|-5-|-|-5-|---|-5---|-|-|
   E|-4-----4-----4-----4-----|-3-----3-----3-------3-------|

ПРИПЕВ: Cm D# А#

Вок.
E|-------------------------------------------------------|
B|--------------------8----------------------------------|
G|--5-----5----7-8---------------8--8----8-----7----5-3--|
D|-------------------------------------------------------|
А|-------------------------------------------------------|
E| бя.  Я свобо - ден     словно пти - ца в небе- |

Гит.
E|-3-----3-----3-----3-----|-6-----6-----6-----6---------|
B|-4-----4-----4-----4-----|-8-----8-----6-----6---------|
G|-5-|-|-5-|-|-5-|-|-5-|-|-|-8-|-|-8-|-|-7-|-|-7-----|-|-|
D|-5-|-|-5-|-|-5-|-|-5-|-|-|-8-|-|-8-|-|-8-|-|-8-----|-|-|
А|-3-|-|-3-|-|-3-|-|-3-|-|-|-6-|-|-6-|-|-8-|-|-8-----|-|-|
E|-3-----3-----3-----3-----|-6-----6-----6-----6---------|

Гит.
  сах,     я свобо - ден,    я за - был,что значит
E|-3-----3-----3-----3-----|-6-----6-----6-----6---------|
B|-4-----4-----4-----4-----|-8-----8-----6-----6---------|
G|-5-|-|-5-|-|-5-|-|-5-|-|-|-8-|-|-8-|-|-7-|-|-7-----|-|-|
D|-5-|-|-5-|-|-5-|-|-5-|-|-|-8-|-|-8-|-|-8-|-|-8-----|-|-|
А|-3-|-|-3-|-|-3-|-|-3-|-|-|-6-|-|-6-|-|-8-|-|-8-----|-|-|
E|-3-----3-----3-----3-----|-6-----6-----6-----6---------|
 страх.    Я свобо - ден, с ди - ким вет - ром нарав-

Гит.
E|-3-----3-----3-----3-----|-6-----6-----6-----6---------|
B|-4-----4-----4-----4-----|-8-----8-----6-----6---------|
G|-5-|-|-5-|-|-5-|-|-5-|-|-|-8-|-|-8-|-|-7-|-|-7-----|-|-|
D|-5-|-|-5-|-|-5-|-|-5-|-|-|-8-|-|-8-|-|-8-|-|-8-----|-|-|
А|-3-|-|-3-|-|-3-|-|-3-|-|-|-6-|-|-6-|-|-8-|-|-8-----|-|-|
E|-3-----3-----3-----3-----|-6-----6-----6-----6---------|
  не.     Я свобо - ден    на -  яву,    а не во
Гит.
E|-3-----3-----3-----3-----|-6-----6-----6-----6---------|
B|-4-----4-----4-----4-----|-8-----8-----6-----6---------|
G|-5-|-|-5-|-|-5-|-|-5-|-|-|-8-|-|-8-|-|-7-|-|-7-----|-|-|
D|-5-|-|-5-|-|-5-|-|-5-|-|-|-8-|-|-8-|-|-8-|-|-8-----|-|-|
А|-3-|-|-3-|-|-3-|-|-3-|-|-|-6-|-|-6-|-|-8-|-|-8-----|-|-|
E|-3-----3-----3-----3-----|-6-----6-----6-----6---------|

Гит.1
 сне...
E|-3-----3-----3-----3-------|-6-----6-----6-----6-------|
B|-4-----4-----4-----4-------|-8-----8-----6-----6-------|
G|-5-|-|-5-|-|-5-|-|-5---|-|-|-8-|-|-8-|-|-7-|-|-7---|-|-|
D|-5-|-|-5-|-|-5-|-|-5---|-|-|-8-|-|-8-|-|-8-|-|-8---|-|-|
А|-3-|-|-3-|-|-3-|-|-3---|-|-|-6-|-|-6-|-|-8-|-|-8---|-|-|
E|-3-----3-----3-----3-------|-6-----6-----6-----6-------|

Гит.2
E|--------------------------|----------------------------|
B|--------------------------|-8----------6---------------|
G|--5---------------8-7-5---|------------------------8-7-|
D|------------------------8-|----------------------------|
А|--------------------------|----------------------------|
E|--------------------------|----------------------------|

Гит.1
E|-3-----3------3-----3-------|-6-------6-------6--------|
B|-4-----4------4-------4-----|-8-------8-------6--------|
G|-5-|-|-5--|-|-5-|-|-5---|-|-|-8---|-|-8---|-|-7--------|
D|-5-|-|-5--|-|-5-|-|-5---|-|-|-8---|-|-8---|-|-8--------|
А|-3-|-|-3--|-|-3-|-|-3---|-|-|-6---|-|-6---|-|-8--------|
E|-3-----3------3-----3-------|-6-------6-------6--------|

Гит.2
E|--------------------------|----------------------------|
B|--------------------------|----------------------------|
G|--5---------------8-7-5---|-5-------3---5--------------|
D|------------------------8-|-----5-----------3----------|
А|--------------------------|----------------------------|
E|--------------------------|----------------------------|

3-й КУПЛЕТ
ПРИПЕВ

Далее СОЛО:
E|-------------------------------|----------------------------|
B|-8^---8^------8^----------8----|----------------------------|
G|-7^---7^------7^-7р0-8-10---8~~|(8)~~-10-10-10-8Н10р8-------|
D|-------------------------------|--------------------10-8----|
А|-------------------------------|-----------------------11-8-|
E|-------------------------------|----------------------------|

E|-------------------------------|----------------------------|
B|-------------------------------|----------------------------|
G|-------------------------------|------------------------12--|
D|------------........-----------|----------------------------|
А|-10----------------------------|----------------------------|
E|-------------------------------|----------------------------|

E|-11--10------------------------|-13-13-13-13-11-10----------|
B|--------13-11Н13р11-11-11-13-11|-------------------11~~~~---|
G|-----------------12------------|-------------------------10-|
D|-------------------------------|----------------------------|
А|-------------------------------|----------------------------|
E|-------------------------------|----------------------------|

E|-------------------------------|----------------------------|
B|-------------------------------|----------------------------|
G|-10--8--8--......--------------|----------------------------|
D|-------------------------------|-------------------/8---6---|
А|-------------------------------|----------------------------|
E|-------------------------------|----------------------------|

E|-------------------------------|-----------------8----------|
B|--------------------------8----|-9--8Н9р8р6-------------8-8-|
G|----------5---7---8------------|-------------8--------------|
D|--5----------------------------|----------------------------|
А|-------------------------------|----------------------------|
E|-------------------------------|----------------------------|

E|----11-10-8--------------------|----------------------------|
B|-9---------11р9р8-......-------|----------------------------|
G|-------------------------------|----------------------------|
D|-------------------------------|------------------------6---|
А|-------------------------------|----------------------------|
E|-------------------------------|----------------------------|

E|-------------------------------|---------------8^-8^-8^-8^--|
B|-----------------------8-------|-9-8Н9р8р6------------------|
G|---------5---7---8-------------|------------8---------------|
D|-5-----------------------------|----------------------------|
А|-------------------------------|----------------------------|
E|-------------------------------|----------------------------|

E|-8^-8^--8^-8р6-8р6-8р6-8р6-8р6-|-8-------------------------6|
B|-------------------------------|---8-6-8р6----6-8-6-8-----6-|
G|-------------------------------|----------------------------|
D|-------------------------------|----------------------------|
А|-------------------------------|----------------------------|
E|-------------------------------|----------------------------|

E|-------------------------------|----------------------------|
B|-6----------8------------------|----------------------------|
G|------8-8-----8---...----------|-----------------8---9---10-|
D|-------------------------------|----------------------------|
А|-------------------------------|----------------------------|
E|-------------------------------|----------------------------|

ПОСЛЕДНИЙ РАЗ ПРИПЕВ ИГРАТЬ В Dm КЛЮЧЕ (Dm F C)   
 
 

Видео