Ария - Штиль, аккорды

Прокрутка
Тональность
Шрифт
100
RIFF.1 (ТАК ИГРАЮТСЯ ВСЕ КУПЛЕТЫ  : )) )
 
1---0---|----2----5--3--|-0---|-0--0-0---|-
2---0---|----3----3--3--|-1---|-0--0-0---|-
3---0---|----2----2--2--|-2---|-0--2-0---|-
4---2---|----0----0--0--|-2---|-2--2-2---|-
5---2---|---------------|-0-- |-2--2-2---|-
6---0---|---------------|-----|-0--0-0---|-

RIFF.2
1--0----|----0---0---0-|------0--|----2---|-
2--1----|----3---5---3-|------1--|--- 3---|-
3--0----|----0---0---0-|------0--|----4---|-
4--2----|----4---4---4-|------2--|----4---|-
5--3----|----5---5---5-|------3--|----2---|-
6-------|--------------|---------|----2---|-

RIFF 1a
1---- -----------------------------------------
2----------------------------------------------
3----5----------5-5--5---7----------------7-9-
4----5----------5-5--5---7----------------7-9-
5----3----------3-3--3---5----------------5-7-
6----------------------------------------------
   Его плоть и кровь вновь насытят нас
1----------------------------------------------
2----------------------------------------------
3----5----------5-5--5------4------------------
4----5----------5-5--5------4------------------
5----3----------3-3--3------2------------------
 А за смерть ему может Бог воздаст.

4 -----------------79-------911--------1112-------
5 -----------------57-------79----------910------
6 -0-2-3p 0------------00-0------00-0----------00-0--
             Что     нас       ждёт
1--------------------------------------------
2--------------------------------------------
3--------------------------------------------
4----9--------11-------12-----10-----9-------
5----7---------9--------10---------9------9--
6--------------------------------------------
  Мо__ре     хра__нит    молчанье

4 ---79---------911------1112------
5 ---57---------79--------910------
6---------00-0-------00-0--------00-0-
     Жа_____да         жить

4------9--------11-------12-------10---9----------
5------7---------9-------10----------9------------
6-----------------------------------------0-2-3p0-
       Су___шит      сер___дца до дна
 
 

Видео