Ария - Искушение, аккорды

Прокрутка
Тональность
Шрифт
100
Вступление:
     Dm                                   F
1.----~10----8-----|-7-----5-----7---|----~10----8-----|-7-----5-----7---|
2.-----------------|-----------------|-----------------|-----------------|
3.----~10----9-----|-7-----5-----7---|----~10----9-----|-7-----5-----7---|
4.-0---------------|-----------------|-----------------|-----------------|
5.-----------------|-----------------|-8---------------|-----------------|
6.-----------------|-----------------|-----------------|-----------------|

     Am
1.----~12----10----|-8-----7-----8---|~10----8-----7---|-----------------|
2.-----------------|-----------------|-----------------|-----------------|
3.----~12----10----|-9-----7-----9---|~10----9-----7---|-9-~-------------|
4.-----------------|-----------------|-----------------|-7-~-------------|
5.-0---------------|-----------------|-0---------------|-----------------|
6.-----------------|-----------------|-----------------|-----------------|

     Dm                                                          F
1.----~10----8-----|-7-----5-----7---|----~10----8-----|-7-----5-----7---|
2.-----------------|-----------------|-----------------|-----------------|
3.----~10----9-----|-7-----5-----7---|----~10----9-----|-7-----5-----7---|
4.-0---------------|-----------------|-----------------|-----------------|
5.-----------------|-----------------|-8---------------|-----------------|
6.-----------------|-----------------|-----------------|-----------------|

     Em                                                        E7
1.----~12----10----|-8-----7-----8---|-12~-------------|-----------------|
2.-----------------|-----------------|-----------------|-----------------|
3.----~12----10----|-9-----7-----9---|-9-~-------------|-----------------|
4.-----------------|-----------------|-----------------|-----------------|
5.-----------------|-----------------|-----------------|-----------------|
6.-0---------------|-----------------|-0---------------|-----------------|

Куплет 1:
	      Am               Am/B
	Закрой глаза, коснись меня,
	      C                     E
	Ты пахнешь соблазном и мёдом.
	    Dm                Dm/F
	Исчезнет грязь осколков дня,
	   E7
	Ударит в гонг природа.
	      Am                 Am/B
	Крадётся ночь, как чёрный зверь,
	      C                   E
	Вибрирует в лунном свечении,
	       Dm                   Dm/F
	Скребётся в дверь, стучит в окно,
	     E7
	Ей холодно одной,
	 Dm
	Холодно одной.

Связка:
	      F                Dm
	Лаская ночь, коснись меня,
	F                   E7
	Имя тебе – искушение.
 
Припев:
	Dm          F                   Am
	Дай мне больше, чем просто любовь.
	Dm          F                                       E
	Дай мне больше, чем страсть, что проходит словно боль.
	         F                  G      Am
	Я сгорю в огне, сгорю в тебе, пускай.
	        F               E7
	Я могу стать пеплом, но...

Куплет 2:
	       Am                 Am/B
	Ты знаешь все, что надо знать.
	      C                     E
	Я знаю чуть больше, чем надо.
	       Dm                Dm/F
	За мной иди в тот древний край,
	       E7
	Что был Библейским Садом.
	    Am                 Am/B
	Забудь о тех, кто говорит,
	       C                      E
	Что путь твой – разврат и падение.
	     Dm                     Dm/F
	Пускай твой смех в ночи звучит
	      E7
	И спелый плод горит,
	   Dm
	Дьявольски горит.

Связка:
	       F                Dm
	Лаская ночь, коснись меня,
	F                  E7
	Имя тебе – искушение.

Припев:
	 Dm         F                   Am
	Дай мне больше, чем просто любовь.
	 Dm         F                                       E
	Дай мне больше, чем страсть, что проходит словно боль.
	         F                  G      Am
	Я сгорю в огне, сгорю в тебе, пускай.
	        F                      E7         Am
	Я могу стать пеплом, лишь познав твой рай...

Проигрыш (3 раза):
	Am | Am/B | C | A/C# 
        Dm | Dm/E | Dm/F | E7

Припев:
	 Dm         F                  Am
	Дай мне больше, чем просто любовь.
	 Dm         F                                       E
	Дай мне больше, чем страсть, что проходит словно боль.
	         F                  G      Am
	Я сгорю в огне, сгорю в тебе, пускай.
	        F                      E7
	Я могу стать пеплом, лишь познав твой рай...

Вступление: Dm | F | Am
            Dm | F | Em | E7 | Am    
 
 

Видео