Ария - Свет былой любви, аккорды

Прокрутка
Тональность
Шрифт
100
Вступление:
    Am               Am/C            Am/B             F6
1.-----------------|-----------------|-----------------|------------------|
2.-----1-0---1-----|-----1-0---------|-----1-0---1-----|-3---1-0---1------|
3.--------------2--|-----------2-----|-----------------|-2------------2---|
4.---2-----------2-|---2---------2---|---0-------------|-3--------------3-|
5.-0---------------|-3-------------3-|-2---------------|------------------|
6.-----------------|-----------------|-----------------|------------------|

    Am               Am/C            Am/B             F6
1.-----------------|-----------------|-----------------|-----------------|
2.-----1-0---1-----|-----1-0---------|-----1-0---1-----|-3---------------|
3.--------------2--|-----------2-----|-----------------|-2---------------|
4.---2-----------2-|---2---------2---|---0-------------|-3---------------|
5.-0---------------|-3-------------3-|-2---------------|-----------------|
6.-----------------|-----------------|-----------------|-----------------|

Куплет 1:
    Am                Am/B             F                   Am
1.-----------------|-----------------|-----------------|-----------------|
2.-----1---0---1---|-----1---0---1---|-----1---0---1---|-----1-0---1-----|
3.---2---2-------2-|---2---2-------2-|---2---2-------2-|--------------2--|
4.-----------------|-----------------|-----------------|---2-----------2-|
5.-0---------------|-2---------------|-----------------|-0---------------|
6.-----------------|-----------------|-1---------------|-----------------|

    Am               Am/B             F                  C  G/B  C
1.-----------------|-----------------|-----------------|-----------------|
2.-----1---0---1---|-----1---0---1---|-----1---0---1---|-----------------|
3.---2---2-------2-|---2---2-------2-|---2---2-------2-|-----0-----0-----|
4.-----------------|-----------------|-----------------|---2-----0-----2-|
5.-0---------------|-2---------------|-----------------|-3-----2-----3---|
6.-----------------|-----------------|-1---------------|-----------------|

   Dm                Dm/F             Amadd9
1.-------0-0h1-----|-------0-1-------|---------0-------|---------0-------|
2.-----3-------3---|-----3-----3-----|-------0---0-----|-------0---0-----|
3.---2-----------2-|---2---------2---|-----5-------5---|-----5-------5---|
4.-0---------------|-3---------------|---7-------------|---7-------------|
5.-----------------|-----------------|-0-------------0-|-----------------|
6.-----------------|-----------------|-----------------|-----------------|

   Dm                Dm/F            Ddim7
1.-------0-0h1-----|-------0-1-------|-4---------------|-~---------------|
2.-----3-------3---|-----3-----3-----|-6---------------|-~---------------|
3.---2-----------2-|---2---------2---|-4---------------|-~---------------|
4.-0---------------|-3---------------|-6---------------|-~---------------|
5.-----------------|-----------------|-5---------------|-~---------------|
6.-----------------|-----------------|-----------------|-----------------|


	 Am                     Am/B                   F   Am
	Ночь темна, мир отчаянно пуст, облака плывут домой.
	Am              Am/B                     F     C  G/B  C
	До тебя долетит моя грусть, упадёт с ресниц слезой.
	 Dm                        Dm/F         Amadd9
	Жизнь и смерть – всего лишь два мгновенья.
	 Dm           Dm/F         Ddim7
	Бесконечна только наша боль…
 
Припев:
	                   Am        F                 Am   D
	Я вернусь к тебе дождём, утренней метелью за окном.
	         G                  E       F  G
	Серебро горстями брошу я к ногам твоим.
	                    Am      F               Am     D
	Я вернусь к тебе грозой, радугой воскресну над землёй.
	        G                 E           F
	Погашу дыханьем ветра свет былой любви…

Вступление: Am | Am/C | Am/B | F6 }x2

Куплет 2:
	 Am                   Am/B                 F       Am
	Тень луны скроет раны мои, превратит в рубины кровь.
	Am              Am/B             F     C  G/BC
	И оставит меня одного умирать среди снегов.
	Dm              Dm/F           Amadd9
	Я хотел всю жизнь начать сначала,
	Dm             Dm/F      Ddim7
	Но её лишь можно оборвать…

Припев:
	                    Am       F                Am  D
	Я вернусь к тебе дождём, утренней метелью за окном.
	         G                 E        F   G
	Серебро горстями брошу я к ногам твоим.
	                    Am      F                 Am    D
	Я вернусь к тебе грозой, радугой воскресну над землёй.
	         G                E           F
	Погашу дыханьем ветра свет былой любви…

Куплет 3:
	            Cm                  Bb            F
	Свет былой любви в конце пути, моя душа к нему летит!
	              Ab            Bb    Cm
	Холод сковал тело моё сотней цепей.
	             Cm                  Bb            F
	Как простой солдат в чужом краю, удачу я искал свою.
	                 Ab                     Bb      C
	Как я был глуп – скажет мне смерть, скажет теперь!

Проигрыш: F | Em | D | Am
          C | Bm | Am | D

Припев:
	                    Em       C               Em  A
	Я вернусь к тебе дождём, утренней метелью за окном.
	         D                  B        C   D
	Серебро горстями брошу я к ногам твоим.
	                    Em     C                   Em   A
	Я вернусь к тебе грозой, радугой воскресну над землёй.
	        D                 B           C
	Погашу дыханьем ветра свет былой любви…

Вступление: Am | Am/C | Am/B | F6 | Am    
 
 

Видео