Ария - Свобода, аккорды

Прокрутка
Тональность
Шрифт
100
Вступление: Dm | Gm | Csus4 | C }x2
            Dm

Куплет 1:
	              Dm  Gm            Csus4     C
	Огонь всё ярче, страницы жизни в нём горят.
	               Dm      Gm          Csus4  C
	Что будет дальше? Об этом знаю только я!
	               Dm          Gm   Csus4               C
	Вопросов больше нет, в ответ не слышно красивой лжи.
	    Dm                          Gm      Csus4    C
	Меня в бесконечность уносит поток стальных машин.

Связка:
	             F             C        Bb     C
	Другая жизнь – не сон! Я был для неё рождён.
	        F                 C  Bb   A7
	И в час ночных дорог я не одинок!

Припев:
	      Dm                  Gm
	Мы верим, что есть свобода,
	     C        F   C
	Пока жива мечта.
	 Dm                Gm
	Верим в свою свободу,
	C              F   C   Dm
	И будет так всегда.

Проигрыш: Dm

Куплет 2:
	           Dm  Gm        Csus4           C
	Я вижу лица, на них печать восьми ветров.
	            Dm    Gm               Csus4   C
	Кому молиться, чтоб нам в пути всегда везло?
	               Dm                Gm   Csus4   C
	А тот кого выбрала смерть, других ей не отдаст.
	     Dm                              Gm   Csus4  C
	Он тенью скользит рядом с нами и охраняет нас.

Связка:
	             F             C            Bb  C
	Другая жизнь – не сон! Всё ближе горизонт.
	        F                 C       Bb   A7
	И в час ночных дорог никто не одинок!
 
Припев:
	      Dm                 Gm
	Мы верим, что есть свобода,
	     C         F  C
	Пока жива мечта.
	Dm                   Gm
	Верим в свою свободу,
	C               F  C  Dm
	И будет так всегда.

Проигрыш: Dm

1.---|---------------------------------|---------------------------------|
2.---|---------------------------------|---------------------------------|
3.---|---------------------------------|---------------------------------|
4.---|---------------------------------|---------------------------------|
5.---|---------------------------5---4-|---------------------------------|
6.-5-|---5-6-5-3-5---5-6-5-3-5---------|-----6-5-3-5---5-6-5-3-3---4---5-|

1.--------------------------------|---------------------------------|
2.--------------------------------|---------------------------------|
3.--------------------------------|---------------------------------|
4.--------------------------------|---------------------------------|
5.--------------------------5---4-|---------------------------------|
6.---5-6-5-3-5---5-6-5-3-5--------|-----6-5-3-5-------------------5-|

1.--------------------------------|---------------------------------|
2.--------------------------------|---------------------------------|
3.--------------------------------|---------------------------------|
4.--------------------------------|---------------------------------|
5.--------------------------5---4-|---------------------------------|
6.---5-6-5-3-5---5-6-5-3-5--------|-----6-5-3-5---5-6-5-3-3---4---5-|

1.--------------------------------|--------------|
2.--------------------------------|--------------|
3.--------------------------------|--------------|
4.--------------------------------|--------------|
5.--------------------------5---4-|--------------|
6.---5-6-5-3-5---5-6-5-3-5--------|-----6-5-3-5--|

	Dm | Gm | Csus4 | C
        Dm | Gm | C | A7

Припев:
	      Dm               Gm
	Мы верим, что есть свобода,
	     C       F   C
	Пока жива мечта.
	Dm                  Gm
	Верим в свою свободу,
	C             F   C   Dm
	И будет так всегда.
	     Dm                 Gm
	Мы верим, что есть свобода,
	     C       F   C
	Пока жива мечта.
	Dm                Gm
	Верим в свою свободу,
	C            F   C   Dm
	И будет так всегда.

Концовка:
	Dm       Gm
	Пока жива мечта,
	C                           F  C  Dm  Gm
	Никто не сможет отнять нашу свободу!
	C             F         C  Dm
	Во все века пусть будет так!
 
 

Видео