Ария - Реквием, аккорды

Прокрутка
Тональность
Шрифт
100
Вступление:
     Em            Emadd2     Em      Emadd2
1.-3---3---2---2---|-3---3---2---2---|
2.-0---0---0---0---|-0---0---0---0---|
3.---0---0---0---0-|---0---0---0---0-|
4.-----------------|-----------------|
5.-----------------|-----------------|
6.-0---------------|-0---------------|

Куплет 1:
	Em                    C
	Мы уходим друг за другом,
	Am                    D   B
	Не сказав последних слов,
	Em                      C
	Открываем дверь без стука,
	Am          B         Em
	В храм летящих облаков.

Связка:
	Dm         F           E
	Мы наконец коснёмся солнца,
	Dm        F        G
	Не обжигая рук своих.

Припев:
	  Am           Am/G
	Всё было и прошло,
	            D/F#
	И оборвалось
	               F  G
	За одно мгновенье.
	  A             Am/G
	Всё снова началось,
	               D/F#
	Звёздами зажглось
	               F   Em
	В глубине Вселенной.

Вступление: Em  Emadd2 | Em Emadd2

Куплет 2:
	Em                    C
	Голоса друзей всё тише,
	Am                  D  B
	Их почти не различить.
	Em                      C
	Кто любил нас, тот услышит,
	Am   B              Em
	И сумеет нас простить.

Связка:
	Dm       F                E
	Мы унесём с собой все тайны,
	Dm          F        G
	Все наши истины и ложь.
 
Припев:
	  Am            Am/G
	Всё было и прошло,
	           D/F#
	И оборвалось
	               F  G
	За одно мгновенье.
	  Am            Am/G
	Всё снова началось,
	                D/F#
	Звёздами зажглось
	                F  Em
	В глубине Вселенной.

Вступление: Em  Emadd2 | Em  Emadd2

Проигрыш:
                Em                                C
 1.----------|----------------------|---------------------------------|
 2.----------|----------------------|---------------------------------|
 3.----------|----------------------|---------------------------------|
 4.----------|----------------------|-5-7b9------------------b9---7-5-|
 5.----------|-7-7-10-7---------5-7-|---------------------------------|
 6.-7--7--7--|----------------------|---------------------------------|

      Am                              D          B
1.---------------------------------|---------------------------------|
2.-------------------8-10b12--10-8-|-10------------------------------|
3.---------------------------------|---------------------------------|
4.-7-------------------------------|---------------------------16-16-|
5.---------------------------------|---------------------------------|
6.---------------------------------|---------------------------------|

      Em                               C
1.---------------------------------|---------------------------------|
2.---------------------------------|---------------------------------|
3.--------------------------~7--7--|-7-5-4-5-------------------------|
4.-16~14-14-14~9-9-9~5--5--5-------|-----------------------------4-5-|
5.---------------------------------|---------------------------------|
6.---------------------------------|---------------------------------|

      Am           B                Em
1.---------------------------------|---------------------------------|
2.---------------------------------|---------------------------------|
3.---------------------------------|---------------------------------|
4.-------------4~5-5-------7-------|-9~------------------------------|
5.-7-------------------------------|---------------------------------|
6.---------------------------------|---------------------------------|

Связка:
	Dm            F        E
	На землю мы еще вернёмся,
	Dm        F           G
	Когда устанем от небес.

Припев:
	  Cm            Cm/Bb
	Всё было и прошло,
	           F/A
	И оборвалось
	               Ab  Bb
	За одно мгновенье.
	  Cm            Cm/Bb
	Всё снова началось,
	               F/A
	Звёздами зажглось
	                   Ab G   C
	В глубине Вселенной… мм…
 
 

Видео