Ария - Игры не для нас, аккорды

Прокрутка
Тональность
Шрифт
100
Intro (0.35 - 1.03):
E|----------------------------------------------|
B|----------------------------------------------|
G|----------------------------------------------|
D|-------2--------4--------5--------7--------45-|
A|-0--0--0--0--0--2--0--0--3--0--0--5--0--0--23-|
E|----------------------------------------------|

E|------------------------------------------|
B|------------------------------------------|
G|------------------------------------------|
D|-------2--------4--------5--------7----57-|
A|-0--0--0--0--0--2--0--0--3--0--0--5----35-|
E|------------------------------------------|

Kuplet (1.03 - 1.18):
E|-----------------------------------------------|
B|-----------------------------------------------|
G|-----------------------------------------------|
D|--2--2--2--2--2--2--2--2--4--------5--------57-|
A|--0--0--0--0--0--0--0--0--2--0--0--3--0--0--35-|
E|-----------------------------------------------|

E|-------------------------------------------|
B|-------------------------------------------|
G|-------------------------------------------|
D|--2--2--2--2--2--2--2--2--2--2--2--2--57-5-|
A|--0--0--0--0--0--0--0--0--0--0--0--0--35-3-|
E|-------------------------------------------|

E|-----------------------------------------------|
B|-----------------------------------------------|
G|-----------------------------------------------|
D|--2--2--2--2--2--2--2--2--4--------5--------57-|
A|--0--0--0--0--0--0--0--0--2--0--0--3--0--0--35-|
E|-----------------------------------------------|

E|------------------------------------------------|
B|------------------------------------------------|
G|------------------------------------------------|
D|-2--2--2--2--2--2--2--2--2--2--2--2--2--2--2--2-|
A|-0--0--0--0--0--0--0--0--0--0--0--0--0--0--0--0-|
E|------------------------------------------------|

Play (1.18 - 1.32):
E|----------------------------------------------|
B|----------------------------------------------|
G|----------------------------------------------|
D|-------2--------4--------5--------7--------45-|
A|-0--0--0--0--0--2--0--0--3--0--0--5--0--0--23-|
E|----------------------------------------------|

E|------------------------------------------|
B|------------------------------------------|
G|------------------------------------------|
D|-------2--------4--------5--------7----57-|
A|-0--0--0--0--0--2--0--0--3--0--0--5----35-|
E|------------------------------------------|

Kuplet 2 (1.33 - 1.46):
E|-----------------------------------------------|
B|-----------------------------------------------|
G|-----------------------------------------------|
D|--2--2--2--2--2--2--2--2--4--------5--------57-|
A|--0--0--0--0--0--0--0--0--2--0--0--3--0--0--35-|
E|-----------------------------------------------|

E|-------------------------------------------|
B|-------------------------------------------|
G|-------------------------------------------|
D|--2--2--2--2--2--2--2--2--2--2--2--2--57-5-|
A|--0--0--0--0--0--0--0--0--0--0--0--0--35-3-|
E|-------------------------------------------|

E|-----------------------------------------------|
B|-----------------------------------------------|
G|-----------------------------------------------|
D|--2--2--2--2--2--2--2--2--4--------5--------57-|
A|--0--0--0--0--0--0--0--0--2--0--0--3--0--0--35-|
E|-----------------------------------------------|

E|------------------------------------------------|
B|------------------------------------------------|
G|------------------------------------------------|
D|-2--2--2--2--2--2--2--2--2----------------------|
A|-0--0--0--0--0--0--0--0--0--0--0--0--0--2--3--5-|
E|------------------------------------------------|

Chorus (1.47 - 2.11):
 3 time
E|-----------------------------------------------------------|
B|-----------------------------------------------------------|
G|-----------------------------------------------------------|
D|---------------------2--------4--------5-------------------|
A|-3-------2-----0--0--0--0--0--2--0--0--3--0--0-----0-2-3-5-|
E|-1-------0-------------------------------------------------|

E|-----------|
B|-----------|
G|-----------|
D|-----------|
A|-3-------2-|
E|-1-------0-|

Play (2.12 - 2.25):
E|----------------------------------------------|
B|----------------------------------------------|
G|----------------------------------------------|
D|-------2--------4--------5--------7--------45-|
A|-0--0--0--0--0--2--0--0--3--0--0--5--0--0--23-|
E|----------------------------------------------|

E|------------------------------------------|
B|------------------------------------------|
G|------------------------------------------|
D|-------2--------4--------5--------7----57-|
A|-0--0--0--0--0--2--0--0--3--0--0--5----35-|
E|------------------------------------------|

Kuplet (2.26 - 2.39)
Chorus (2.40 - 3.05)
Play
Solo
 
 

Видео