Ария - Ангельская пыль, аккорды

Прокрутка
Тональность
Шрифт
100
Вступление:эл. гитара 1:
G|----------------------------4--5-4-----------|
D|-4---9---7-5-4-5--4---4-5-7--------7-5-4---4-|
A|-2---7-------------7-7-------------------7---|
E|---------------------------------------------|

эл. гитара 2:
G|----------------------------4--5-4-----------|
D|-4---9---7-5-4-5--4---4-5-7--------7-5-4---4-|
A|-2---7-------------7-7-------------------7---|
E|---------------------------------------------|

эл. гитара 1:
G|----------------------------4--5-4-----------|
D|-4---9---7-5-4-5--4---4-5-7--------7-5-4---4-|
A|-2---7-------------7-7-------------------7---|
E|---------------------------------------------|

эл. Гитара 2:
G|----------------------------7--8-7------------|
D|-4---9---7-5-4-5--4---7-8-10-------10-8-7---7-|
A|-2---7-------------7-10-------------------10--|
E|----------------------------------------------|

эл. гитара 1:
E|-------------------------------------------|
B|---------------------------5-6-5-----------|
G|-------7-5-4-5-4-----4-5-7-------7-5-4---4-|
D|-4--9------------7-7-------------------7---|
A|-2--7--------------------------------------|
E|-------------------------------------------|

эл. гитара 2:
E|-------------------------------------------|
B|---------------------------2-3-2-----------|
G|-------7-5-4-5-4-----1-2-4-------4-2-1---1-|
D|-4--9------------7-4-------------------4---|
A|-2--7--------------------------------------|
E|-------------------------------------------|

эл. гитара 1:
G|----------------------------4--5-4-----------|
D|-4---9---7-5-4-5--4---4-5-7--------7-5-4---4-|
A|-2---7-------------7-7-------------------7---|
E|---------------------------------------------|

эл. гитара 2:
G|----------------------------4--5-4-----------|
D|-4---9---7-5-4-5--4---4-5-7--------7-5-4---4-|
A|-2---7-------------7-7-------------------7---|
E|---------------------------------------------|

Основная часть:ак. гитара 1:
E|-----------------------------------------------------------|
B|-0-----0-----0----1-----1----1---0-----0-----0----1----1---|
G|---0-----0-----0----0-----0----0---0-----0-----0----0----0-|
D|-----2-----2----------2-----2--------2-----2----------2----|
A|-----------------------------------------------------------|
E|-----------------------------------------------------------|

эл. гитара 2:
G|-2~------------2-3~-----------3-2~------------2-3~-|
D|---------------------------------------------------|
A|---------------------------------------------------|
E|---------------------------------------------------|

ак. гитара 1:
E|-----------------------------------------------------------|
B|-0-----0-----0----1-----1----1---0-----0-----0----1----1---|
G|---0-----0-----0----0-----0----0---0-----0-----0----0----0-|
D|-----2-----2----------2-----2--------2-----2----------2----|
A|-----------------------------------------------------------|
E|-----------------------------------------------------------|

эл. гитара 2:
G|-2~------------2-3~-----------3-2~------------2-3~-|
D|---------------------------------------------------|
A|---------------------------------------------------|
E|---------------------------------------------------|

ак. гитара:  Em          C/E
E|---------------------------------------|
B|-0-----0-----0----1-----1----1---0-----|
G|---0-----0-----0----0-----0----0---0---|
D|-----2-----2----------2-----2--------2-|
A|---------------------------------------|
E|---------------------------------------|

 На краю обрыва, за которым вечность,
         Em      Am6/E
E|---------------------|
B|-0-----0----1----1---|
G|---0-----0----0----0-|
D|-----2----------2----|
A|---------------------|
E|---------------------|

Ты стоишь один во власти странных грез
ак. гитара:  Em          C/E       G           D
E|-----------------------------------------------------------|
B|-0-----0-----0----1-----1----1---0-----0-----0----3----3---|
G|---0-----0-----0----0-----0----0---0-----0-----0----2----2-|
D|-----2-----2----------2-----2--------0-----0----------0----|
A|-----------------------------------------------------------|
E|-----------------------------------------------------------|

И, простившись с миром, хочешь стать беспечным,
Поиграть с огнем нездешних гроз.
Наконец ты счастлив как никто на свете,
Ангельская пыль тебя уносит вверх.
Только ей подвластны и восторг, и ветер,
В жидких небесах звучит твой смех.

Припев.эл гитара 1:   D  C  Em
G|--5-5-7-7-9-------5-4-----4---------------|
D|--5-5-7-7-9-4-5-7-----7-5---7-5-4-7-5-4---|
A|--3---5---7-----------------------------7-|
E|------------------------------------------|

эл гитара 2:
G|--5-5-7-7-9-------8-7-----8-----------------|
D|--5-5-7-7-9-7-8-10---10-8--10-8-7-10-8-7----|
A|--3---5---7------------------------------10-|
E|--------------------------------------------|

  Ангельская пыль.эл гитара 1:   D  C  B7
G|--5-5-7-7-4-------4-------4------|
D|--5-5-7-7-4-------4-------4------|
A|--3---5---2-2-2-2-2-2-2-2-2------|
E|-----------------------------3-2-|

  Это сон и быль!эл. гитара 1:  Em       C       G  D
G|-------------------------------------------2-------|
D|-----------------------------------0-2-4-5---5-4-2-|
A|---------------------------------------------------|
E|---------------------------------------------------|

эл. гитара 2:
G|---------------------------------------2-4-5-4-2---|
D|-2-4-5-4-2---2-4-5-4-2---4-5-7-5-4-4-5-----------4-|
A|-----------5-----------5---------------------------|
E|---------------------------------------------------|
  Безумец, беглец - дороги нет 

Эл. гитара 1
   Em             C         D
G|----------------------------------------------2-|
D|--------------------------------------0-2-4-5---|
A|------------------------------------------------|
E|------------------------------------------------|

Эл. гитара 2:
G|------------------------------------------------|
D|--2-4-5-4-2---2-4-5-4-2---4-5-7-5-4-------4-5-7-|
A|------------5-----------5-----------7-5-7-------|
E|------------------------------------------------|
  Ты видишь неверный свет.

Эл. гитара 1:   Am      F       C       G
G|------------------------------------------------------|
D|--------------------------------------------2-3-2-----|
A|--------------------------------------2-3-5-------5-3-|
E|------------------------------------------------------|

Эл. гитара 2:
G|------------------------------------------------------|
D|------------------------------------------------------|
A|--0-2-3-2-0---0-2-3-2-0---2-3-5-3-2-0---0-2-3-2-0-----|
E|------------3-----------3-------------3-----------3-1-|
 Твой ангел зажег мираж огня.

Эл. Гитара 1:   Am     F         G
G|--------------------------------------------|
D|--------------------------5-------5-------5-|
A|--0-2-3-2-0---0-2-3-2-0---5-5-5-5-5-5-5-5-5-|
E|------------3-----------3-3-3-3-3-3-3-3-3-3-|
  Он хочет убить тебя...

На краю обрыва песня неземная,
Музыка богов и голоса богинь.
Ты паришь над миром, но торговец раем
Вынет душу из тебя за героин.
Ты устал быть птицей и сорвался камнем.
Рухнул с высоты, спасаясь от судьбы.
На краю обрыва вновь летят на пламя
Сотни мотыльков-самоубийц.

Припев.
 
 

Видео