Ария - Не хочешь - не верь мне, аккорды

Прокрутка
Тональность
Шрифт
100
E|------------------------------| 2 раза,
B|------------------------------| затем 2 раза на бэк-фоне
G|------------------------------|
D|--------5----0-3---0-2---0-1--|
A|------5----3-----2-----1------|
E|---3--------------------------|

E|-------------------------------------------------------|
B|-------------------------------------------------------| 2
G|--5--5-3-4~--4-2-3~--3-1-2~----------------------------| раза
D|----------------------------6-4-5~--5-3-4~--4-2-3-2-0--|
A|-------------------------------------------------------|
E|-------------------------------------------------------|

E|------------------------------------|
B|------------------------------------|
G|-------------------------------7~~--|
D|---9--7--12--10---------------------|
A|---7--5--10--8---7-8-7Н0-5~~--------|
E|------------------------------------|

E|-------------------------------|
B|-------------------------------|
G|-------------------------------|
D|---9--7--12--10----------------|
A|---7--5--10--8---7-8-7Н0-5~~---|
E|-------------------------------|

E|------------------------------------------------------|
B|------------------------------------------------------|
G|-------7-----------------5-----------------------3----|
D|-------7--7--7--7--7--7--5--5--5--5--5--5--5--5--3-3--|
A|-12^0--5--5--5--5--5--5--3--3--3--3--3--3--3--3--1-1--|
E|------------------------------------------------------|
     Dm           C                Bb
     Я не верил, что я мертв, я слышал брань и плачь.

E|------------------------------------------------------|
B|------------------------------------------------------|
G|--------------------2-----------------------7---------|
D|--3--3--3--3--3--3--2--2--2--2--2--2--2--2--7---------|
A|--1--1--1--1--1--1--0--0--0--0--0--0--0--0--5---------|
E|------------------------------------------------------|
               Am               Dm
Видел как над телом там внизу шаманил старый врач.

E|---------------------------------------------------|
B|---------------------------------------------------|
G|----------------------------5-----------------3----|
D|----------7--7--7--7--7--7--5--5--5--5--5--5--3--3-|
A|----------5--5--5--5--5--5--3--3--3--3--3--3--1--1-|
E|---------------------------------------------------|
       Dm           C           Bb
      Я плыл в черной пустоте, я обретал покой.

E|------------------------------------------------------|
B|------------------------------------------------------|
G|--------------------2--------------------------7------|
D|--3--3--3--3--3--3--2--2--2--2--2--2--2--2--2--7------|
A|--1--1--1--1--1--1--0--0--0--0--0--0--0--0--0--5------|
E|------------------------------------------------------|
              Am                 Dm
Свет в конце тонеля, как магнит тянул к себе дух мой...

E|---------------------------------------------------|
B|---------------------------------------------------|
G|---------------------------------------------7~~~--|
D|---9--7--12--10------------------------------------|
A|---7--5--10--8---7-8-7Н0-5~~~----------------------|
E|---------------------------------------------------|
                              Bb
                   Не хочешь - не верь мне!

E|-------------------------------|
B|-------------------------------|
G|-------------------------------|
D|---9--7--12--10----------------|
A|---7--5--10--8---7-8-7Н0-5~~~--|
E|-------------------------------|

Свет был ярче тысяч солнц,   |
Я понял - это бог!           |
Не бездушный идол,           |
А живой сверкающий поток.    | играется также,
Свет заставил вспомнить всех | как в первом куплете
С кем дрался и грешил.       |
Он заставил вспомнить,       |
Каждый шаг бунтующей души... |

E|---------------------------------------------------|
B|---------------------------------------------------|
G|---------------------------------------------7~~~--|
D|---9--7--12--10------------------------------------|

A|---7--5--10--8---7-8-7Н0-5~~~----------------------|
E|---------------------------------------------------|
                   Не хочешь - не верь мне!

E|--------------------------------------------------|
B|--------------------------------------------------|
G|-----------------------------------------------9--|
D|-9--7--12--10----------------------------------9--|
A|-7--5--10--8---7-8-7Н0-5--7-8-7Н0-5--7-8-7Н0---7--|
E|--------------------------------------------------|

D|--9--9--9--9--9--9--5-----|
A|--7--7--7--7--7--7--3-----|
E|--------------------------|
  Em           C
  Я не хочу той пустоты,

D|--5--5--5--5--5--5--------|
A|--3--3--3--3--3--3--7-----|
E|--------------------5-----|
              Am
  Я не хочу той чистоты,

D|--------------------------|
A|--7--7--7--7--7--7--5-----|
E|--5--5--5--5--5--5--3-----|
              G
  Я не хочу той высоты,

G|-----------------------9--|
D|-----------4--4--4--4--9--|
A|--5--5--5--2--2--2--2--7--|
E|--3--3--3-----------------|
        B7       Em
  Я не прошел всего пути!

D|--9--9--9--9--9--9--5-----|
A|--7--7--7--7--7--7--3-----|
E|--------------------------|
              C
  Я не хочу той высоты,

D|--5--5--5--5--5--5--------|
A|--3--3--3--3--3--3--7-----|
E|--------------------5-----|
              Am
  Я не хочу той чистоты,

D|--------------------------|
A|--7--7--7--5--5--5--5-----|
E|--5--5--5--7--7--7--3-----|
              G
  Я не хочу той пустоты,

G|-----------------------------------------------9-----|
D|-----------4--4--4--4--5--5--5--5--7--7--7--7--9-----|
A|--5--5--5--2--2--2--2--3--3--3--3--5--5--5--5--7-----|
E|--3--3--3--------------------------------------------|
        B7       C       D       Em
                                Нет!

E|-------------------------------------------------------|
B|-------------------------------------------------------| 2
G|--5--5-3-4~--4-2-3~--3-1-2~----------------------------| раза
D|----------------------------6-4-5~--5-3-4~--4-2-3-2-0--|
A|-------------------------------------------------------|
E|-------------------------------------------------------|

Я звал друга, но никто
Не слышал голос мой,
Я рванул сквозь стены,
Но никто не бросился за мной.
Там внизу горел асфальт
От сбитых с неба звезд.
Мне хотелось ветра
Чтобы бил наотмашь и насквозь.
Не хочешь - не верь мне!
 
 

Видео