Ария - Тореро, аккорды

Прокрутка
Тональность
Шрифт
100
Проигрыш:
 C#
 -----------------------
 -----------------------
 -----------------------
 -11-11-11-11---11--11--
 
 -11-11-11-11---11--11--
 -9--9--9--9----9---9---
              ^let ring

Riff1:
 C#         B         А       G#
 -------------------------------------------------------
 -------------------------------------------------------|
 -------------------------------------------------------|
 -------------------------------------------------------|
 -------------------------------------------------------|
 -9-11-12-9-11-12-7-9-11-7-9-11-5-7-9-5-7-9-4-5-4-5-4-5-/

With Riff1:
 C#     B      А         G#
 -------------------------------------------
 -------------------------------------------
 -------------------------------------------
 -------6---4-1-----4-2---------------------
 -4-6-7---------2-------4-0---0-4Н7-6-------
 -------------------------------------7-4---

Riff2 - 2 times:
 А          G#
 -----------------------------
 -----------------------------
 -----------------------------
 -7--------------(6-6-6-6-6)-- ()-play only second time
 -7-------7-6-4---6-6-6-6-6---
 -5---0-5---------4-4-4-4-4---

Riff3:
 -----------------------------
 -----------------------------
 -----------------------------
 -6-X16-times-----------------
 -4------------x//-pickslide--
 -----------------------------

Riff4 (very fast!):
 -----------------------------
 -----------------------------
 -----------------------------
 -------------4---6-----------
 -------4-3-----6-------------
 -5-4-2-----5-----------------

Riff5:
 ---------------------------------
 ---------------------------------
 -5-5-6-6-8-8-9-9-11-11-12-12-13--
 -----------------------------^^--
 -------------------------------let ring
 ---------------------------------

     C#m       B
     Эй, тореро, жизнь как миг
       А         G#
     Опять звучит трубы призывный зов
     C#m       B
     Эй, тореро, ты или бык
       А         G#
     Качается чаша весов

With Riff2:
     Бог хранит тебя
     Смерть щадит тебя--а--а

Chorus:
           C#        B A G# A G# A G#
           Неба белый платок
            А  G# F# G# А G#  A G# A G# A G#
           Кровь и желтый песок
            F#       А   F# G# А G# Riff4
           Крик отчаянья бык живая мишень
           C#          B  A G# A G# A G#
           Под восторженный вой
           А  F# G#  А  G#  A G# A G# A G#
           Ты играешь судьбой
           F#           А      F# G#   А G# Riff4
           Пусть не знает никто что творится в душе

     Эй, тореро, сын вдовы
     Твой красный плащ твой траурный покров
     Эй, тореро, ты будешь убит
     Под песню мадридских часов
     Бог хранит тебя
     Смерть щадит тебя-а-а

           Неба белый платок
           Кровь и желтый песок
           Крик отчаянья бык живая мишень
           Под восторженный вой
           Ты играешь собой
           Пусть не знает никто что творится в душе

Проигрыш riff: Riff1 Riff2

Solo:
Версия schords 4 times
Then goes only drums, bass and lead

Chorus

Riff5
     G#
     Эй, тореро

Проигрыш riff (as outro)
 
 

Видео