Ария - Смутное время, аккорды

Прокрутка
Тональность
Шрифт
100
Intro:
Riff 1(два раза)
1|--------------------|-------9-----------|
2|-12-11----9---------|-12-11-------12-11-|
3|-------11------11-9-|-------------------|
4|--------------------|-------------------|
5|--------------------|-------------------|
6|--------------------|-------------------|

1|--------------------|----------9--------|
2|-12-11----9---------|-12-11-------------|
3|-------11------11-9-|-------11----------|
4|--------------------|-------------------|
5|--------------------|-------------------|
6|--------------------|-------------------|

Riff 2:
1|------------------------|--------------------|
2|----------------5-------|----------------5---|
3|-7--6--4--6--7-----7--6-|-7--6--4--6--7----6-|
4|------------------------|--------------------|
5|------------------------|--------------------|
6|------------------------|--------------------|

Riff 3(Gtr):
1|-------------------------|--------------------------|
2|-------------------------|--------------------------|
3|-------------------------|--------------------------|
4|-2h4---4---5---2h4-------|-2h4---4---5--------------|
5|-2-----2---2---2---0-2-3-|-2-----2---2-------1~~~~~-|
6|-----0---0---0-----------|-----0---0---0-2-3--------|

Куплет:
Вокал:1|---------2----------------------------------------|
      2|-7-5----------------------7---7--7--8--7--7--5--5-|
      3|------7-----4-------------------------------------|
      4|--------------------------------------------------|
      5|--------------------------------------------------|
      6|-смутное время        призрак свободы на коне.|
     |                            |
Gtr: 1|------------------------------------------|
     2|------------------------------------------|
     3|---------------2--------------------------|
     4|-4-------------4---4h5p4p0----------------|
     5|-4-------------4-----------2-------2---2--|
     6|-2-------2-2-2-2--------------3------3----|

Вокал:1|------------2-----------------------5--------------|
      2|-7-----5-----------------7---7--7------8-----------|
      3|----------7---4------------------------------------|
      4|---------------------------------------------------|
      5|---------------------------------------------------|
      6|-Кровь по колено      словно в какомто дикомсне-|
     |                                  |
Gtr: 1|---------------------------------------------------|
     2|---------------------------------------------------|
     3|------------------------2--------------------------|
     4|----------4-------------4---4h5p4p0----------------|
     5|--4--5----4-------------4-----------2-------2---2--|
     6|-3--3--3--2-------2-2-2-2--------------3------3----|
 
 

Видео