Ария - Без тебя, аккорды

Прокрутка
Тональность
Шрифт
100
 Dm            Am/C             Gm/Bb        А7 
E|--1-----------0-----------|--------------------0-------------| 
B|-----3-----3-----3-----3--|--3-----------2--------2----------| 
G|--------2-----------2-----|-----0----------------------------| 
D|--0-----------------------|----------------------------------| 
А|--------------3-----------|--1--------1--0--0----------------| 
E|--------------------------|--------3-------------------------| 
 
     Dm            Am/C             Gm/Bb   C       Dm  
E|--1-----------0-----------|--------0-------------------------| 
B|-----3-----3-----3-----3--|--3-----------3----3--------------| 
G|--------2-----------2-----|-----0-----0-----2----2-----------| 
D|--0-----------------------|--------------0-------------------| 
А|--------------3-----------|--1-----3-------------------------| 
E|--------------------------|----------------------------------| 
 
     Dm   Am/C       Gm/Bb           А7 
E|--1--0--------0-----------|-----------0-----------0----------| 
B|--------3--------3-----3--|--3--2--------2-----2-------------| 
G|-----------2--------0-----|--------2--------2----------------| 
D|--0-----------------------|----------------------------------| 
А|-----3--------3--1--------|--1--0----------------------------| 
E|--------------------------|----------------------------------| 
 
     Dm   Am/C       Gm/Bb           А7 
E|--1--0--------0-----------|-----------0------0---------------| 
B|--------3--------3-----3--|--3--2--------2------2------------| 
G|-----------2--------0-----|--------2--------2------2---------| 
D|--0-----------------------|----------------------------------| 
А|-----3--------3--1--------|--1--0----------------------------| 
E|--------------------------|----------------------------------| 
 
  Dm      Am/C     Gm/Bb    Gm   A7 
Снова брошен в окна лунный свет, 
  Dm        Am/C    Gm/Bb   C   Dm  
Дом мой сонный серебром одет. 
  Dm   Am/C      Gm/Bb   A7 
Мм...    Мм...    Мм... 
  Dm   Am/C      Gm/Bb   A7 
Мм...    Мм...    Мм... 
 
Лунной кисти не достичь глубин - 
Эту бездну знаю я один. 
 
Припев: 
     D                Gm  
   Все, все как вчера, 
     D                Gm  Bb  C  
   Все, все как вчера, 
     D               Gm  
   Все, все как вчера, 
             A  A7 
   Но без тебя... 
 
Ревность, жалость, словно заодно, 
Птицей скорби падаю на дно. 
 
Припев.
 
 

Видео