Ария - Ночь в июле, аккорды

Прокрутка
Тональность
Шрифт
100
ВСТУПЛЕНИЕ: 
Clean Guitar  
E|-----------------|------------------------------- 
B|-----5-6-8-6-5---|----5-------------------------- 
G|-5-------------5-|--2---2h5p2----4---4-5--------- 
D|---5-------------|--0---------3----5------------- 
A|-3---------------|------------------------------- 
E|---------6---5---|---------------3--------------- 
/ 
 
E|----------------------|-------------------------- 
B|-----5-6-8h10p8---5---|---5---------------------- 
G|-5-------------10---5-|-2---2h5p2---4---5p4-2p0-- 
D|---5------------------|-0---------3---5---------- 
A|-3--------------------|-------------------------- 
E|---------6--------8-5-|-------------3------------ 
/ 
 
E|-----------------|-0----------------------------- 
B|-----5-6-8-6-5---|-----1-3-3--------------------- 
G|-5-------------5-|---2-------4-2-0--------------- 
D|---5-------------|-0----------------------------- 
A|-3---------------|------------------------------- 
E|---------6---5---|---------3--------------------- 
/ 
 
E|----------------------|-------------------------- 
B|-----5-6-8h10p8---5---|---5---------------------- 
G|-5-------------10---5-|-2---2h5p2---4---5p4-2p0-- 
D|---5------------------|-0---------3---5---------- 
A|-3--------------------|-------------------------- 
E|---------6--------8-5-|-------------3------------ 
/ 
                   AВ  (14)  NH 
E|---------0----------------12--------------------- 
B|------------------------------------------------- 
G|----0h2----------2--------12--------------------- 
D|------------------------------------------------- 
A|-3----------3------------------------------------ 
E|------------------------------------------------- 
/ 
 
КУПЛЕТ: (перебором)
      C  
Ты уходишь прочь из дома 
 Dm                  Fm   G  
В час когда все крепко спят, 
       C           G  Am  
По дороге незнакомой 
              G  
От рассвета на закат 
 
Припев: 
  A7               Dm  
Ночь в июле полна соблазна, 
 Fm              C  
И мятежна ночная даль. 
 Dm              Am  
Свыше путь тебе указан, 
   C           G  
Знает бог один куда 
 
 C   Dm   G  - 2 раза 
 
(Далее до конца боем) 
 
Слишком много было фальши 
Несвободы и вранья 
Ангел мой, так будет дальше 
Но беги, беги пока 
 
Припев. 
 
Знаю встретишь незнакомца 
Сердце дрогнет и замрет 
В новой клетке будет солнце 
Но никто от боли не спасет 
 
Припев. 
   G             F  
Свыше путь тебе указан 
 C             G  
Знает бог один куда 
 
 Am            E  
Я и сам мечтал когда-то 
 Am                     E  
Раскачать безумный этот мир 
 Am              E  
Но умчалось все куда-то 
 Am                      E  
Все прошло как спелых яблок дым 
 F7                                 G  
Ну а ты беги пока свободна и легка 
 
Припев.
 
 

Видео