Ария - Кто ты, аккорды

Прокрутка
Тональность
Шрифт
100
Intro / Куплет 1:
E|---------------------------------------------------------------|
B|---------------------------------------------------3---1-3---1-|
G|-2-----0-----0---------------------2-----0-------0-------------|
D|---4-----2-----2-4-----4^5^4-2---0---4-----2---2-----0-----0---|
A|-----------2-------5-----------0-------------2----------0------|
E|-----0---------------0-----------------0-----------------------|

E|------------------------------------------------------------|
B|---------------------------------------0-------0-3---1--0---|
G|-2----0-----0---------------------2------0---0------------2-|
D|---4----2-----2-4-----4^5^4-2---0---4------2-------0------4-|
A|----------2-------5-----------0-----------------------0-----|
E|----0---------------0-----------------0---------------------|

E|-0-------------|
B|---0-----------|
G|-------2-------|
D|-----5---4^5-2-|
A|---------------|
E|---------------|

Снова полночь -
Слышу чей-то голос,
Шепчет имя,
Манит и зовет меня...

Куплет 2:
E|------------------------------|------------------------------|
B|-8----8-7---7---5----5-4--4---|-1----1-4--4---5----5-4-------|
G|---9----------8---5---------5-|---2---------5---5------5-4---|
D|------------------------------|----------------------------5-| x2
A|-----0----0---------0----0----|-----0----0--------0----------|
E|------------------------------|------------------------------|

И белым туманом
На стеклах чей-то вздох оставлен,
И гаснет вдруг пламя
Хотя нет ветра.

Куплет 3 = Куплет 1 (вторая половина):
E|------------------------------------------------------------|
B|---------------------------------------0-------0-3---1--0---|
G|-2----0-----0---------------------2------0---0------------2-|
D|---4----2-----2-4-----4^5^4-2---0---4------2-------0------4-|
A|----------2-------5-----------0-----------------------0-----|
E|----0---------------0-----------------0---------------------|

E|-0-------------|
B|---0-----------|
G|-------2-------|
D|-----5---4^5-2-|
A|---------------|
E|---------------|

Вижу тень я -
Кто-то в черном у окна.

Припев:
   C     B7        Em 
Кто ты? Наказанье или милость?
   C     B7        Em 
Кто ты? Отрекаться не спеши!
  C    B7          Em 
Может, за душой моей явилась?
  G        C   Em 
Только нет души.

Куплет 4 = Куплет 1:
E|---------------------------------------------------------------|
B|---------------------------------------------------3---1-3---1-|
G|-2-----0-----0---------------------2-----0-------0-------------|
D|---4-----2-----2-4-----4^5^4-2---0---4-----2---2-----0-----0---|
A|-----------2-------5-----------0-------------2----------0------|
E|-----0---------------0-----------------0-----------------------|

E|------------------------------------------------------------|
B|---------------------------------------0-------0-3---1--0---|
G|-2----0-----0---------------------2------0---0------------2-|
D|---4----2-----2-4-----4^5^4-2---0---4------2-------0------4-|
A|----------2-------5-----------0-----------------------0-----|
E|----0---------------0-----------------0---------------------|

E|-0-------------|
B|---0-----------|
G|-------2-------|
D|-----5---4^5-2-|
A|---------------|
E|---------------|

Проклят, брошен
Словно камень с неба,
Страшно падать,
только ждать еще страшней!

Куплет 5 = Куплет 2:
E|------------------------------|------------------------------|
B|-8----8-7---7---5----5-4--4---|-1----1-4--4---5----5-4-------|
G|---9----------8---5---------5-|---2---------5---5------5-4---|
D|------------------------------|----------------------------5-| x2
A|-----0----0---------0----0----|-----0----0--------0----------|
E|------------------------------|------------------------------|

Все помнить и жаждать
Любви, но быть распятым ею,
И мчаться к безумью,
Услышав Голос...

Куплет 6 = Куплет 3:
E|------------------------------------------------------------|
B|---------------------------------------0-------0-3---1--0---|
G|-2----0-----0---------------------2------0---0------------2-|
D|---4----2-----2-4-----4^5^4-2---0---4------2-------0------4-|
A|----------2-------5-----------0-----------------------0-----|
E|----0---------------0-----------------0---------------------|

E|-0-------------|
B|---0-----------|
G|-------2-------|
D|-----5---4^5-2-|
A|---------------|
E|---------------|

Ровно полночь -
снова тень идет ко мне...

Припев:
   C     B7        Em 
Кто ты? Наказанье или милость?
   C     B7        Em 
Кто ты? Отрекаться не спеши!
  C    B7          Em 
Может, за душой моей явилась?
  G        C   Em 
Только нет души.

Outro = Intro:
E|---------------------------------------------------------------|
B|---------------------------------------------------3---1-3---1-|
G|-2-----0-----0---------------------2-----0-------0-------------|
D|---4-----2-----2-4-----4^5^4-2---0---4-----2---2-----0-----0---|
A|-----------2-------5-----------0-------------2----------0------|
E|-----0---------------0-----------------0-----------------------|

E|------------------------------------------------------------|
B|---------------------------------------0-------0-3---1--0---|
G|-2----0-----0---------------------2------0---0------------2-|
D|---4----2-----2-4-----4^5^4-2---0---4------2-------0------4-|
A|----------2-------5-----------0-----------------------0-----|
E|----0---------------0-----------------0---------------------|

E|-0-------------|
B|---0-----------|
G|-------2-------|
D|-----5---4^5-2-|
A|---------------|
E|---------------|
 
 
Свернуть Распечатать

Видео