Ария - Улица роз, аккорды

Прокрутка
Тональность
Шрифт
100
Вступление:  
1|------------------|------------------| 
2|------------------|------------------| 
3|--7-----7-----7---|--7-----7-----7---| x4 
4|--7-----7-----7---|--8-----8-----8---| 
5|----5-5---5-5---5-|----5-5---5-5---5-| 
6|------------------|------------------| 
 
Куплет: 
1|---------------|---------------| 
2|---------------|---------------| 
3|7-----7-----7--|7-----7-----7--| 
4|7-----7-----7--|8-----8-----8--| x2 
5|--5-5---5-5---5|--5-5---5-5---5| 
6|---------------|---------------| 
       Dm                 Bbmaj7      Dm  Bbmaj7  
     Жанна     из     тех           королев, 
 
1|---------------|---------------|---------------|-------------- 
2|---------------|---------------|---------------|-------------- 
3|7-----7-----7--|7-----7-----7--|9-----9-----9--|-------------- 
4|7-----7-----7--|8-----8-----8--|9-----9-----9--|-------------- 
5|--5-5---5-5---5|--5-5---5-5---5|--7-7---7-7---7|7-7-7-7-7-7-7- 
6|---------------|---------------|---------------|5-5-5-5-5-5-5- 
     Dm                  Bbmaj7              Em7    A7/C#  
   Что     любят     роскошь      и     ночь. 
 
1|------------------|------------------| 
2|------------------|------------------| 
3|--7-----7-----7---|--7-----7-----7---| x2 
4|--7-----7-----7---|--8-----8-----8---| 
5|----5-5---5-5---5-|----5-5---5-5---5-| 
6|------------------|------------------| 
      Dm                 Bbmaj7        Dm Bbmaj7  
    Только         царить      на    земле 
 
1|---------------|---------------|---------------|-------------- 
2|---------------|---------------|---------------|-------------- 
3|7-----7-----7--|7-----7-----7--|9-----9-----9--|-------------- 
4|7-----7-----7--|8-----8-----8--|9-----9-----9--|-------------- 
5|--5-5---5-5---5|--5-5---5-5---5|--7-7---7-7---7|7-7-7-7-7-7-7- 
6|---------------|---------------|---------------|5-5-5-5-5-5-5- 
     Dm               Bbmaj7          Em7 A7/C#  
   Ей    долго    не            суждено. 
 
1|---------------|----------------------|----------------------- 
2|---------------|----------------------|----------------------- 
3|---------------|----------------------|----------------------- 
4|---------------|----------------------|-9-9-9-------7-7-7----- 
5|-8-8-8-8-8-8-8-|-10-10-10-10-10-10-10-|-7-7-7-7-7-7-5-5-5----- 
6|-6-6-6-6-6-6-6-|-8--8--8--8--8--8--8--|-------5-5-5----------- 
    Bb                C                         F    C/E Dm  
  Ну,       а по-ка,             как бо--гиню, на ру-ках 
 
E|---------------------------------|---------------------------| 
B|---------------------------------|---------------------------| 
G|---------------------------------|---------------------------| 
D|7-7-7----------------------------|---------------------------| 
A|5-5-5-5-5-5-5-5-5-5-5-5-5-5-5-5-5|7-7-7-7-7-7-7-7-7-7-7-7-7-7| 
E|------3-3-3-3-3-3-3-3-3-3-3-3-3-3|5-5-5-5-5-5-5-5-5-5-5-5-5-5| 
         Gm                              A  
 носят Жанну...                      Жанну... 

1|---------------|---------------| 
2|---------------|---------------| 
3|7-----7-----7--|7-----7-----7--| 
4|7-----7-----7--|8-----8-----8--| x2 
5|--5-5---5-5---5|--5-5---5-5---5| 
6|---------------|---------------| 
       Dm                 Bbmaj7      Dm  Bbmaj7  
     Все    началось     не      со      зла, 
 
1|---------------|---------------|---------------|-------------- 
2|---------------|---------------|---------------|-------------- 
3|7-----7-----7--|7-----7-----7--|9-----9-----9--|-------------- 
4|7-----7-----7--|8-----8-----8--|9-----9-----9--|-------------- 
5|--5-5---5-5---5|--5-5---5-5---5|--7-7---7-7---7|7-7-7-7-7-7-7- 
6|---------------|---------------|---------------|5-5-5-5-5-5-5- 
     Dm                  Bbmaj7              Em7    A7/C#  
    Все         началось        как            игра, 
 
1|------------------|------------------| 
2|------------------|------------------| 
3|--7-----7-----7---|--7-----7-----7---| x2 
4|--7-----7-----7---|--8-----8-----8---| 
5|----5-5---5-5---5-|----5-5---5-5---5-| 
6|------------------|------------------| 
      Dm                 Bbmaj7        Dm Bbmaj7  
    Но      лестницу       в    небо    сожгла. 
 
1|---------------|---------------|---------------|-------------- 
2|---------------|---------------|---------------|-------------- 
3|7-----7-----7--|7-----7-----7--|9-----9-----9--|-------------- 
4|7-----7-----7--|8-----8-----8--|9-----9-----9--|-------------- 
5|--5-5---5-5---5|--5-5---5-5---5|--7-7---7-7---7|7-7-7-7-7-7-7- 
6|---------------|---------------|---------------|5-5-5-5-5-5-5- 
     Dm               Bbmaj7          Em7 A7/C#  
    Плата     за    стыд     твой    и    страх. 
 
1|---------------|----------------------|----------------------- 
2|---------------|----------------------|----------------------- 
3|---------------|----------------------|----------------------- 
4|---------------|----------------------|-9-9-9-------7-7-7----- 
5|-8-8-8-8-8-8-8-|-10-10-10-10-10-10-10-|-7-7-7-7-7-7-5-5-5----- 
6|-6-6-6-6-6-6-6-|-8--8--8--8--8--8--8--|-------5-5-5----------- 
    Bb                C                         F    C/E Dm  
  Ты     и      они...     Я    порвал    бы   эту    нить, 
 
E|---------------------------------|---------------------------| 
B|---------------------------------|---------------------------| 
G|---------------------------------|---------------------------| 
D|7-7-7----------------------------|---------------------------| 
A|5-5-5-5-5-5-5-5-5-5-5-5-5-5-5-5-5|7-7-7-7-7-7-7-7-7-7-7-7-7-7| 
E|------3-3-3-3-3-3-3-3-3-3-3-3-3-3|5-5-5-5-5-5-5-5-5-5-5-5-5-5| 
         Gm                              A  
 Слышишь Жанну...                      Жанну... 
 
Припев: 
 
4|-3-3-3-3-3-3-3-3-3-3-3-3-3-3-|-------------------------------| 
5|-1-1-1-1-1-1-1-1-1-1-1-1-1-1-|-3-3-3-3-3-3-3-3-3-3-3-3-3-3---| 
6|-----------------------------|-1-1-1-1-1-1-1-1-1-1-1-1-1-1---| 
    Bbmaj7                        F  
  Сводит        с             ума 
 
4|-5-5-5-5-5-5-5-5-5-5-5-5-5-5-|-7-7-7-7-7-7-7-7-7-7-7-7-7-7---| 
5|-3-3-3-3-3-3-3-3-3-3-3-3-3-3-|-5-5-5-5-5-5-5-5-5-5-5-5-5-5---| 
6|-----------------------------|-------------------------------| 
    C                               Dm  
  Улица                         роз, 
 
4|-3-3-3-3-3-3-3-3-3-3-3-3-3-3-|-------------------------------| 
5|-1-1-1-1-1-1-1-1-1-1-1-1-1-1-|-3-3-3-3-3-3-3-3-3-3-3-3-3-3---| 
6|-----------------------------|-1-1-1-1-1-1-1-1-1-1-1-1-1-1---| 
    Bbmaj7                      F  
  Спрячь         свой        обман, 
 
4|-5-5-5-5-5-5-5-5-5-5-5-5-5-5-|-7-7-7-7-7-7-7-7-7-7-7-7-7-7---| 
5|-3-3-3-3-3-3-3-3-3-3-3-3-3-3-|-5-5-5-5-5-5-5-5-5-5-5-5-5-5---| 
6|-----------------------------|-------------------------------| 
    C                              Dm  
  Улица                         слез. 
 
4|-----------------------------|-------------------------------| 
5|-8-8-8-8-8-8-8-8-8-8-8-8-8-8-|-7-7-7-7-7-7-7-7-7-7-7-7-7-7---| 
6|-6-6-6-6-6-6-6-6-6-6-6-6-6-6-|-5-5-5-5-5-5-5-5-5-5-5-5-5-5---| 
        Bb                         A  
Я  люблю                  и ненавижу 
 
4|-3-3-3-3-3-3-5-5-5-5-5-3-3-3-3-3-2-2-2-2-| 
5|-1-1-1-1-1-1-3-3-3-3-3-1-1-1-1-1-0-0-0-0-| 
6|-----------------------------------------| 
     Bb            C       Bb  A7  
тебя!                    О... 
 
Куплет: 
1|---------------|---------------| 
2|---------------|---------------| 
3|7-----7-----7--|7-----7-----7--| 
4|7-----7-----7--|8-----8-----8--| x2 
5|--5-5---5-5---5|--5-5---5-5---5| 
6|---------------|---------------| 
       Dm                 Bbmaj7      Dm  Bbmaj7  
     Грязь       под      ногами      бродяг 
 
1|---------------|---------------|---------------|-------------- 
2|---------------|---------------|---------------|-------------- 
3|7-----7-----7--|7-----7-----7--|9-----9-----9--|-------------- 
4|7-----7-----7--|8-----8-----8--|9-----9-----9--|-------------- 
5|--5-5---5-5---5|--5-5---5-5---5|--7-7---7-7---7|7-7-7-7-7-7-7- 
6|---------------|---------------|---------------|5-5-5-5-5-5-5- 
     Dm                  Bbmaj7              Em7    A7/C#  
   Чище,           чем    фальшь     сладких    слов. 
 
1|------------------|------------------| 
2|------------------|------------------| 
3|--7-----7-----7---|--7-----7-----7---| x2 
4|--7-----7-----7---|--8-----8-----8---| 
5|----5-5---5-5---5-|----5-5---5-5---5-| 
6|------------------|------------------| 
      Dm                 Bbmaj7        Dm Bbmaj7  
      Я         подаю       тебе       знак 
 
1|---------------|---------------|---------------|-------------- 
2|---------------|---------------|---------------|-------------- 
3|7-----7-----7--|7-----7-----7--|9-----9-----9--|-------------- 
4|7-----7-----7--|8-----8-----8--|9-----9-----9--|-------------- 
5|--5-5---5-5---5|--5-5---5-5---5|--7-7---7-7---7|7-7-7-7-7-7-7- 
6|---------------|---------------|---------------|5-5-5-5-5-5-5- 
     Dm               Bbmaj7          Em7 A7/C#  
   Бросить     свое    ремесло:    брось   и  уйди, 
 
1|---------------|----------------------|----------------------- 
2|---------------|----------------------|----------------------- 
3|---------------|----------------------|----------------------- 
4|---------------|----------------------|-9-9-9-------7-7-7----- 
5|-8-8-8-8-8-8-8-|-10-10-10-10-10-10-10-|-7-7-7-7-7-7-5-5-5----- 
6|-6-6-6-6-6-6-6-|-8--8--8--8--8--8--8--|-------5-5-5----------- 
    Bb                C                         F    C/E Dm  
  Пусть          растает,        словно        дым, 
 
E|---------------------------------|---------------------------| 
B|---------------------------------|---------------------------| 
G|---------------------------------|---------------------------| 
D|7-7-7----------------------------|---------------------------| 
A|5-5-5-5-5-5-5-5-5-5-5-5-5-5-5-5-5|7-7-7-7-7-7-7-7-7-7-7-7-7-7| 
E|------3-3-3-3-3-3-3-3-3-3-3-3-3-3|5-5-5-5-5-5-5-5-5-5-5-5-5-5| 
         Gm                              A  
 Облик Жанну...                      Жанну... 
 
Припев: 
 
4|-3-3-3-3-3-3-3-3-3-3-3-3-3-3-|-------------------------------| 
5|-1-1-1-1-1-1-1-1-1-1-1-1-1-1-|-3-3-3-3-3-3-3-3-3-3-3-3-3-3---| 
6|-----------------------------|-1-1-1-1-1-1-1-1-1-1-1-1-1-1---| 
    Bbmaj7                        F  
  Сводит        с             ума 
 
4|-5-5-5-5-5-5-5-5-5-5-5-5-5-5-|-7-7-7-7-7-7-7-7-7-7-7-7-7-7---| 
5|-3-3-3-3-3-3-3-3-3-3-3-3-3-3-|-5-5-5-5-5-5-5-5-5-5-5-5-5-5---| 
6|-----------------------------|-------------------------------| 
    C                               Dm  
  Улица                         роз, 
 
4|-3-3-3-3-3-3-3-3-3-3-3-3-3-3-|-------------------------------| 
5|-1-1-1-1-1-1-1-1-1-1-1-1-1-1-|-3-3-3-3-3-3-3-3-3-3-3-3-3-3---| 
6|-----------------------------|-1-1-1-1-1-1-1-1-1-1-1-1-1-1---| 
    Bbmaj7                      F  
  Спрячь         свой        обман, 
 
4|-5-5-5-5-5-5-5-5-5-5-5-5-5-5-|-7-7-7-7-7-7-7-7-7-7-7-7-7-7---| 
5|-3-3-3-3-3-3-3-3-3-3-3-3-3-3-|-5-5-5-5-5-5-5-5-5-5-5-5-5-5---| 
6|-----------------------------|-------------------------------| 
    C                              Dm  
  Улица                         слез. 
 
4|-----------------------------|-------------------------------| 
5|-8-8-8-8-8-8-8-8-8-8-8-8-8-8-|-7-7-7-7-7-7-7-7-7-7-7-7-7-7---| 
6|-6-6-6-6-6-6-6-6-6-6-6-6-6-6-|-5-5-5-5-5-5-5-5-5-5-5-5-5-5---| 
        Bb                         A  
Я  люблю                  и ненавижу 
 
4|-3-3-3-3-3-3-5-5-5-5-5-3-3-3-3-3-2-2-2-2-| 
5|-1-1-1-1-1-1-3-3-3-3-3-1-1-1-1-1-0-0-0-0-| 
6|-----------------------------------------| 
     Bb            C       Bb  A7  
тебя!                    О... 
 
Куплет: 
1|---------------|---------------| 
2|---------------|---------------| 
3|7-----7-----7--|7-----7-----7--| 
4|7-----7-----7--|8-----8-----8--| x2 
5|--5-5---5-5---5|--5-5---5-5---5| 
6|---------------|---------------| 
       Dm                 Bbmaj7      Dm  Bbmaj7  
      У           королевы    нет      сил, 
 
1|---------------|---------------|---------------|-------------- 
2|---------------|---------------|---------------|-------------- 
3|7-----7-----7--|7-----7-----7--|9-----9-----9--|-------------- 
4|7-----7-----7--|8-----8-----8--|9-----9-----9--|-------------- 
5|--5-5---5-5---5|--5-5---5-5---5|--7-7---7-7---7|7-7-7-7-7-7-7- 
6|---------------|---------------|---------------|5-5-5-5-5-5-5- 
     Dm                  Bbmaj7              Em7    A7/C#  
   Трудно          пойти      вновь     на     риск, 
 
1|------------------|------------------| 
2|------------------|------------------| 
3|--7-----7-----7---|--7-----7-----7---| x2 
4|--7-----7-----7---|--8-----8-----8---| 
5|----5-5---5-5---5-|----5-5---5-5---5-| 
6|------------------|------------------| 
      Dm                 Bbmaj7        Dm Bbmaj7  
     И     она     разбивает          часы, 
 
1|---------------|---------------|---------------|-------------- 
2|---------------|---------------|---------------|-------------- 
3|7-----7-----7--|7-----7-----7--|9-----9-----9--|-------------- 
4|7-----7-----7--|8-----8-----8--|9-----9-----9--|-------------- 
5|--5-5---5-5---5|--5-5---5-5---5|--7-7---7-7---7|7-7-7-7-7-7-7- 
6|---------------|---------------|---------------|5-5-5-5-5-5-5- 
     Dm               Bbmaj7          Em7 A7/C#  
   Чтобы         продлить     себе    жизнь. 
 
1|---------------|----------------------|----------------------- 
2|---------------|----------------------|----------------------- 
3|---------------|----------------------|----------------------- 
4|---------------|----------------------|-9-9-9-------7-7-7----- 
5|-8-8-8-8-8-8-8-|-10-10-10-10-10-10-10-|-7-7-7-7-7-7-5-5-5----- 
6|-6-6-6-6-6-6-6-|-8--8--8--8--8--8--8--|-------5-5-5----------- 
    Bb                C                         F    C/E Dm  
  Жить!      Ведь     пока,     как    богиню   на   руках, 
 
E|---------------------------------|---------------------------| 
B|---------------------------------|---------------------------| 
G|---------------------------------|---------------------------| 
D|7-7-7----------------------------|---------------------------| 
A|5-5-5-5-5-5-5-5-5-5-5-5-5-5-5-5-5|7-7-7-7-7-7-7-7-7-7-7-7-7-7| 
E|------3-3-3-3-3-3-3-3-3-3-3-3-3-3|5-5-5-5-5-5-5-5-5-5-5-5-5-5| 
         Gm                              A  
 Носят Жанну...                      Жанну... 

Припев: 
 
4|-3-3-3-3-3-3-3-3-3-3-3-3-3-3-|-------------------------------| 
5|-1-1-1-1-1-1-1-1-1-1-1-1-1-1-|-3-3-3-3-3-3-3-3-3-3-3-3-3-3---| 
6|-----------------------------|-1-1-1-1-1-1-1-1-1-1-1-1-1-1---| 
    Bbmaj7                        F  
  Сводит        с             ума 
 
4|-5-5-5-5-5-5-5-5-5-5-5-5-5-5-|-7-7-7-7-7-7-7-7-7-7-7-7-7-7---| 
5|-3-3-3-3-3-3-3-3-3-3-3-3-3-3-|-5-5-5-5-5-5-5-5-5-5-5-5-5-5---| 
6|-----------------------------|-------------------------------| 
    C                               Dm  
  Улица                         роз, 
 
4|-3-3-3-3-3-3-3-3-3-3-3-3-3-3-|-------------------------------| 
5|-1-1-1-1-1-1-1-1-1-1-1-1-1-1-|-3-3-3-3-3-3-3-3-3-3-3-3-3-3---| 
6|-----------------------------|-1-1-1-1-1-1-1-1-1-1-1-1-1-1---| 
    Bbmaj7                      F  
  Спрячь         свой        обман, 
 
4|-5-5-5-5-5-5-5-5-5-5-5-5-5-5-|-7-7-7-7-7-7-7-7-7-7-7-7-7-7---| 
5|-3-3-3-3-3-3-3-3-3-3-3-3-3-3-|-5-5-5-5-5-5-5-5-5-5-5-5-5-5---| 
6|-----------------------------|-------------------------------| 
    C                              Dm  
  Улица                         слез. 
 
4|-----------------------------|-------------------------------| 
5|-8-8-8-8-8-8-8-8-8-8-8-8-8-8-|-7-7-7-7-7-7-7-7-7-7-7-7-7-7---| 
6|-6-6-6-6-6-6-6-6-6-6-6-6-6-6-|-5-5-5-5-5-5-5-5-5-5-5-5-5-5---| 
        Bb                         A  
Я  люблю                  и ненавижу 
 
4|-3-3-3-3-3-3-5-5-5-5-5-3-3-3-3-3-2-2-2-2-| 
5|-1-1-1-1-1-1-3-3-3-3-3-1-1-1-1-1-0-0-0-0-| 
6|-----------------------------------------| 
     Bb            C       Bb  A7  
тебя!                    О... 
 
 
Свернуть Распечатать

Видео