Ария - Дух войны, аккорды

Прокрутка
Тональность
Шрифт
100
 E |-----------7--5--3Н0--|--7--5--3Н0-------|---------------|
 B |----------------------|------------------|---------------|
 G |-5--7--9--------------|------------------|-5-5-5-5-5-5---|
 D |-5--7--9--------------|------------------|-5-5-5-5-5-5---|
 A |-3--5--7--------------|------------------|-3-3-3-3-3-3-0-|
 E |----------------------|------------------|---------------|

 E |----------------------|--5~~~-|
 B |----------------------|-------|
 G |-------------------7--|-------|
 D |-5---5-5-5-5-5-----7--|-------|
 A |-5---5-5-5-5-5-----5--|-------|
 E |-3---3-3-3-3-3-0------|-------|

  Em 
Вновь и вновь я вижу сон:
  C 
Кровью залит горизонт,
  D                      C  D 
И земля в огне на много миль.
  Em 
Шесть минут до часа "X",
  C 
Небо скоро рухнет вниз,
  D                        C  B 
Ветер всех развеет словно пыль.

Припев:
    C          D 
   Время убивать,
     C/E         D/F# 
   Время наступать,
    C             D          B7 
   Время наступать и побеждать!

    C     D  Em 
   Дух войны
                  D 
   Скалится из тьмы.
    B               C 
   Входит в наши сны
           G 
   Дух войны -
                D 
   И мы ему верны.

    C     D   Em 
   Вот и все.
                D 
   Мир объят огнем,
    B               C 
   Но не стихнет гром.
           G 
   Дух войны -
               D 
   Он требует еще...
     C 
   Еще!

Разрушенье - это страсть.
Все равно какая власть.
Власть пила всегда чужую кровь.
И когда наступит крах,
Солнце вспыхнет на штыках.
И толпу на смерть погонит вновь.

Припев.
 
 

Видео