Ария - Бесы к себе зовут, аккорды

Прокрутка
Тональность
Шрифт
100
Проигрыш:
E----------------------------|---------------------------------|
B----------------------------|---------------------------------|
G-9-999-9-9-9-9-9-9----------|-8-888-8-8-8-8-8-8-8-8-----------|
D-9-999-9-9-9-9-9-9----------|-8-888-8-8-8-8-8-8-8-8-----------|
А-7-777-7-7-7-7-7-7-10-9-7---|-6-666-6-6-6-6-6-6-6-6-----------|
E----------------------------|-------------------------7-------|

E----------------------------|---------------------------------|
B----------------------------|---------------------------------|
G-9-999-9-9-9-9--------------|-8-888-8-8-8---------------------|
D-9-999-9-9-9-9--------------|-8-888-8-8-8-9-10-9Н10р9-7-------|
А-7-777-7-7-7-7-7--9--10-9-7-|-6-666-6-6-6---------------10-9--|
E----------------------------|---------------------------------|

E--------------------------------------------------------------|
B--------------------------------------------------------------|
G--------------------------------------------------------------|
D-9-xxxx-9--7-xxxx-7-5-xxxx--5-----7----7----7----7------------|
А-9-xxxx-9--7-xxxx-7-5-xxxx--5-----7----7----7----7------------|
E-7-xxxx-7--5-xxxx-5-3-xxxx--3---5-5--5-5--5-5--5-5------------|

E--------------------------------------------------||
B--------------------------------------------------||
G------------------------------------------------*-||
D--9--xxxx--9----7--xxxx--7----5--xxxx--5---7----*-||
А--9--xxxx--9----7--xxxx--7----5--xxxx--5---7------||
E--7--xxxx--7----5--xxxx--5----3--xxxx--3---5------||

E--------------------------------------------------------------|
B--------------------------------------------------------------|
G-7-xxx-7-7-7-7-xxx-7-7-7---7--xxx--7-7-7----------------------|
D-7-xxx-7-7-7-7-xxx-7-7-7---7--xxx--7-7-7---7--7Н8р7--5--------|
А-5-xxx-5-5-5-5-xxx-5-5-5---5--xxx--5-5-5----------------8--7--|
E--------------------------------------------------------------|

I Версия: 
  Дай мне сойти с ума       Ведь с безумца и спроса нет
E--------------------------------------------------------------|
B--------------------------------------------------------------|
G--7--xxx--7-7-9-10--xxx--10-10-10-----------------------------|
D--7--xxx--7-7-9-10--xxx--10-10-10--9--xxx--9-9-9-7--xxx-7-7-7-|
А--5--xxx--5-5-7-8---xxx--8--8--8---9--xxx--9-9-9-7--xxx-7-7-7-|
E-----------------------------------6--xxx--6-6-6-5--xxx-5-5-5-|

 Дай мне хоть раз сломать    Этот слишком нормальный свет
E--------------------------------------------------------------|
B--------------------------------------------------------------|
G--7--xxx--7-7-9-10--xxx--10-10-10-------------------9----9----|
D--7--xxx--7-7-9-10--xxx--10-10-10--9--xxx--9-9-9----9----9----|
А--5--xxx--5-5-7-8---xxx--8--8--8---9--xxx--9-9-9----7----7----|
E-----------------------------------6--xxx--6-6-6--8----8------|

 Здесь духотой гнетет  Бесконечная страсть борьбы
E--------------------------------------------------------------|
B--------------------------------------------------------------|
G--------------------------------------------5--xxx--5-5-5-----|
D--3--xxx--3-3-4-5--xxx--5-5-5-8--xxx--8-8-8-5--xxx--5-5-5-----|
А--3--xxx--3-3-4-5--xxx--5-5-5-8--xxx--8-8-8-3--xxx--3-3-3-----|
E--1--xxx--1-1-2-3--xxx--3-3-3-6--xxx--6-6-6-------------------|

 Воздух тягуч как мед   С каплей крови моей судьбы
E--------------------------------------------------------------|
B--------------------------------------------------------------|
G----------------------------------------------5---3-----------|
D--3--xxx--3-3-4-5--xxx--5-5-5-8--xxx--8-8-8---5---3-----------|
А--3--xxx--3-3-4-5--xxx--5-5-5-8--xxx--8-8-8---3---1-----------|
E--1--xxx--1-1-2-3--xxx--3-3-3-6--xxx--6-6-6-------------------|

Chorus:
 Бесы                         Бесы все злей и зле - ей
 Бесы                         Бесы в  душе    мое - е -
E----------------------------|---------------------------------|
B----------------------------|---------------------------------|
G----------------------------|--7----------5----------3--------|
D--8--5----------------------|--7----------5------8---3--------|
А--8--5---4--3--4--3--1------|--5----------3------8---5--------|
E--6--3------------------4---|--------------------6------------|

- еееееееееееееееееееееееееееееееееееееееееей
E--------------------------------------------------------------|
B--------------------------------------------------------------|
G-7-xxx-7-7-7---7--xxx--7-7-7---7--xxx--7-7-7------------------|
D-7-xxx-7-7-7---7--xxx--7-7-7---7--xxx--7-7-7-7--7Н8р7-5-------|
А-5-xxx-5-5-5---5--xxx--5-5-5---5--xxx--5-5-5-------------8--7-|
E--------------------------------------------------------------|

II Версия:
  Бесы к себе зовут      Дразнят в зеркале день и ночь
E--------------------------------------------------------------|
B--------------------------------------------------------------|
G--7--xxx--7-7-9-10--xxx--10-10-10-----------------------------|
D--7--xxx--7-7-9-10--xxx--10-10-10--9--xxx--9-9-9-7--xxx-7-7-7-|
А--5--xxx--5-5-7-8---xxx--8--8--8---9--xxx--9-9-9-7--xxx-7-7-7-|
E-----------------------------------6--xxx--6-6-6-5--xxx-5-5-5-|

 Тащат в заросший пруд  И не в силах никто помочь
E--------------------------------------------------------------|
B--------------------------------------------------------------|
G--7--xxx--7-7-9-10--xxx--10-10-10-------------------9----9----|
D--7--xxx--7-7-9-10--xxx--10-10-10--9--xxx--9-9-9----9----9----|
А--5--xxx--5-5-7-8---xxx--8--8--8---9--xxx--9-9-9----7----7----|
E-----------------------------------6--xxx--6-6-6--8----8------|

 Сон превращают в быль  Крутят адское колесо
E--------------------------------------------------------------|
B--------------------------------------------------------------|
G--------------------------------------------5--xxx--5-5-5-----|
D--3--xxx--3-3-4-5--xxx--5-5-5-8--xxx--8-8-8-5--xxx--5-5-5-----|
А--3--xxx--3-3-4-5--xxx--5-5-5-8--xxx--8-8-8-3--xxx--3-3-3-----|
E--1--xxx--1-1-2-3--xxx--3-3-3-6--xxx--6-6-6-------------------|

 С ангелов сдули пыль     Подновили Христу лицо
E--------------------------------------------------------------|
B--------------------------------------------------------------|
G----------------------------------------------5---3-----------|
D--3--xxx--3-3-4-5--xxx--5-5-5-8--xxx--8-8-8---5---3-----------|
А--3--xxx--3-3-4-5--xxx--5-5-5-8--xxx--8-8-8---3---1-----------|
E--1--xxx--1-1-2-3--xxx--3-3-3-6--xxx--6-6-6-------------------|

Chorus:
 Бесы                         Бесы все злей и зле - ей
 Бесы                         Бесы в  душе    мое - е -
E--------------------------|-----------------------------------|
B--------------------------|-----------------------------------|
G--------------------------|--7------5----------3--------------|
D--8--5--------------------|--7------5------8---3--------------|
А--8--5---4--3--4--3--1----|--5------3------8---5--------------|
E--6--3------------------4-|----------------6------------------|

       - ееееееееееееееееее....й
       E------------------------|-------------------------------|
gtr1.  B-10-----------10-8--10--|-10------------10-8--6-10---8--|
gtr2.  G-10-10-----10-10-7--9---|-10--10-----10-10-7--7--9---7--|
       D----10--10-10-----------|-----10--10-10-----------------|
       А--------10--------------|---------10--------------------|
       E------------------------|-------------------------------|

       E-8------------8----8----|-------------------------------|
       B-9--9---------9-11-8----|-------------------------------|
       G----10-----10---12------|-------------------------------|
       D--------10-10-----------|-------------------------------|
       А--------10--------------|-------------------------------|
       E------------------------|-------------------------------|

Версия  III:
   Господи! Я не твой        Ближних я не могу любить
E--------------------------------------------------------------|
B--------------------------------------------------------------|
G--7--xxx--7-7-9-10--xxx--10-10-10-----------------------------|
D--7--xxx--7-7-9-10--xxx--10-10-10--9--xxx--9-9-9-7--xxx-7-7-7-|
А--5--xxx--5-5-7-8---xxx--8--8--8---9--xxx--9-9-9-7--xxx-7-7-7-|
E-----------------------------------6--xxx--6-6-6-5--xxx-5-5-5-|

  Трудно мне жить слугой    А хозяином мне не быть
E--------------------------------------------------------------|
B--------------------------------------------------------------|
G--7--xxx--7-7-9-10--xxx--10-10-10-------------------9----9----|
D--7--xxx--7-7-9-10--xxx--10-10-10--9--xxx--9-9-9----9----9----|
А--5--xxx--5-5-7-8---xxx--8--8--8---9--xxx--9-9-9----7----7----|
E-----------------------------------6--xxx--6-6-6--8----8------|

  Дай мне сойти с ума     Ведь с безумца и спроса нет
E--------------------------------------------------------------|
B--------------------------------------------------------------|
G--------------------------------------------5--xxx--5-5-5-----|
D--3--xxx--3-3-4-5--xxx--5-5-5-8--xxx--8-8-8-5--xxx--5-5-5-----|
А--3--xxx--3-3-4-5--xxx--5-5-5-8--xxx--8-8-8-3--xxx--3-3-3-----|
E--1--xxx--1-1-2-3--xxx--3-3-3-6--xxx--6-6-6-------------------|

  Дай мне хоть раз сломать  Этот слишком нормальный свет.
E--------------------------------------------------------------|
B--------------------------------------------------------------|
G----------------------------------------------5---3-----------|
D--3--xxx--3-3-4-5--xxx--5-5-5-8--xxx--8-8-8---5---3-----------|
А--3--xxx--3-3-4-5--xxx--5-5-5-8--xxx--8-8-8---3---1-----------|
E--1--xxx--1-1-2-3--xxx--3-3-3-6--xxx--6-6-6-------------------|

Chorus:
 Бесы                         Бесы все злей и зле - ей
 Бесы                         Бесы в  душе    мое - е -
E--------------------------|-----------------------------------|
B--------------------------|-----------------------------------|
G--------------------------|--7------5----------3--------------|
D--8--5--------------------|--7------5------8---3--------------|
А--8--5---4--3--4--3--1----|--5------3------8---5--------------|
E--6--3------------------4-|----------------6------------------|

       - ееееееееееееееееее....й
       E------------------------|-------------------------------|
gtr1.  B-10-----------10-8--10--|-10------------10-8--6-10---8--|
gtr2.  G-10-10-----10-10-7--9---|-10--10-----10-10-7--7--9---7--|
       D----10--10-10-----------|-----10--10-10-----------------|
       А--------10--------------|---------10--------------------|
       E------------------------|-------------------------------|

       E-8------------8----8----|-------------------------------|
       B-9--9---------9-11-8----|-------------------------------|
       G----10-----10---12------|-------------------------------|
       D--------10-10-----------|-------------------------------|
       А--------10--------------|-------------------------------|
       E------------------------|-------------------------------|
 
 
Свернуть Распечатать

Видео