Ария - Что вы сделали с вашей мечтой, аккорды

Прокрутка
Тональность
Шрифт
100
 E |---------------|---------------|---------------------------|
 B |-----8--7--3-5-|-----2-3--5----|--------8--7--10--3Н5--5---|
 G |---------------|------------2--|---------------------------|
 D |---9-----------|---9-----------|-----9---------------------|
 A |-7-------------|-7-------------|--7------------------------|
 E |---------------|---------------|---------------------------|

 E |-------------|-------------------|------------------7~~~---|
 B |-----8-7-3-5-|-------2--3--5-----|--------8--7--10---------|
 G |-------------|----------------2--|-------------------------|
 D |---9---------|----9--------------|-----9-------------------|
 A |-7-----------|-7-----------------|--7----------------------|
 E |-------------|-------------------|-------------------------|

 E ||--0------------|--2------------|--0--------------------0--|
 B ||--0------------|--2------------|--1--------------------0--|
 G ||--0------------|--2------------|--2--------------------0--|
 D ||--2------------|--4------------|--2--------------------2--|
 A ||--2------------|--4------------|--0--------------------2--|
 E ||--0------------|--2------------|--0--------------------0--|

 E |-7--5------------7--5------------7--5---------7Н5----------|
 B |-------5--5-8-5--------5--5-8-5--------5-8-5------5--5-8-5-|
 G |-----------------------------------------------------------|
 D |-----------------------------------------------------------|
 A |-----------------------------------------------------------|
 E |-----------------------------------------------------------|

 E ||--7--5------------7--5------------7--5---------7Н5-5-5~~--|
 B ||--------5--5-8-5--------5--5-8-5--------5-8-5-------------|
 G ||----------------------------------------------------------|
 D ||----------------------------------------------------------|
 A ||----------------------------------------------------------|
 E ||----------------------------------------------------------|

  Em                      Am 
Ты слишком долго блуждал в темноте
                             Em 
И ты думал, что ночь - это день.
                   Am 
Ты видел сотни поруганных тел,
                           Am 
Но предать их земле было лень.
  Em 
Ты не предатель, ты просто глупец
      Am                Em 
И таких миллионы кругом.
                         Am
Бедный Христос свой сорвал бы венец,
                         Am 
Угадай он, что будет потом...
  F#m    D 
...ответь,
  F#m                 D 
Что вам мешало прозреть?
   C                     D 
Что же случилось с мечтой -
   C                       D 
Сделать для всех рай земной?

Сбросило ветром повязку с лица
И в глаза свет ударил бичом.
Оказалось, маньяк заменял вам отца,
А народ был послушным скотом.
Все изменилось в прозревших глазах,
Кто был крысой - стал тигром и львом.
Ты не предатель, ты жил в дураках
И таких миллионы кругом...
...ответь
Что вам мешало прозреть?
Что же случилось с мечтой -
Сделать для всех рай земной?

      Em 
Оглянись назад,
         C 
Там застыл закат,
         G                   D 
Черно-красной застыл полосой.
      Em 
Впереди - туман,
      C 
Позади - обман,
          G                   D 
Что вы сделали с вашей мечтой?
 
 

Видео