Ария - Возьми мое сердце, аккорды новинка

Прокрутка
Тональность
Шрифт
100
Вступление и Проигрыш: 
1|---------10--------10--------5-------4-|
2|------10---------9---------6-------5---|
3|-7-10--------7-9-------5-7-----2-4-----| x2 
4|---------------------------------------|

Куплеты:
1|-10---10---5---4---|
2|-10---9----6---5---|
3|-10---9----7---4---| x2 
4|-------------------|

|барэ 1м пальцем|          |барэ 1м пальцем|   
1|----3-----3--------1-----1-----|
2|---3-------3------3-------3----|
3|--3----6----6----2----1----1---|
4|-5--------------0--------------| x2
5|-------------------------------|

1|--------4---5-|
2|-----2--------|
3|--2-----------|
4|--------------|
5|--------------|

Куплет 1:
Слепая ночь легла у ног
И не пускает за порог
Брожу по дому как во сне
О мне покоя нет нигде
Тупая боль пробьет висок
И пальцы лягут на курок
А в зеркалах качнется призрак
Призрак любви

Припев:
        Dm
Возьми мое сердце
     F
Возьми мою душу
       Gm
Я так одинок в этот час
         C7
Что хочу умереть
     Dm
Мне некуда деться
          F
Свой мир я разрушил
          Gm
По мне плачет только свеча
        C7
а холодной заре

Куплет 2:
Ты умерла в дождливый день
И тени плыли по воде
Я смерть увидел в первый раз
Ее величие и грязь
В твоих глазах застыла боль
Я разделю ее с тобой
А в зеркалах качнется призрак
Призрак любви

F     B       C7
Я слышу утренний колокол
F     B       C7
Он славит праздник
F     B       C7
И сыпет медью и золотом
Dm            C
Ты теперь в царстве вечного сна

F     B       C7
Я слышу утренний колокол
F     B       C7
Он бесов дразнит
F     B       C7
И звоном небо расколото
Dm            C
А земле я любил лишь тебя...
C
...Возьми мое сердце.

Outro:
1|---------10--------10-------------3-2-|
2|------10---------9--------------3-----|
3|-7-10--------7-9--------------2-------| 
4|----------------------------0---------|

Комментарий автора:

7-10 ,7-9 ,5-7 и 2-4 играются слайдом указательным пальцем.

Помогу с подбором любых песен и любых инструментов а также с освоением гитары и высокого рок вокала https://vk.com/id488686733
 
 
Свернуть Распечатать

Видео