Ария - С кем ты, аккорды

Прокрутка
Тональность
Шрифт
100
Intro:
(0:01 - 0:24)
Riff 1:
Gtr.1E|--------------------------------------------------|
     B|-------------------------- here ------------------|
     G|------------------------ drums оnlу --------------|
     D|--------------------------------------------------|
     A|-----------------------------------------8-----8--|
     E|-----------------------------------------6-----6--|
                                                >     >

Gtr.1E|--------------------------------------------------|------------------------------------------------|
     B|--------------------------------------------------|------------------------------------------------|
     G|--------------------------------------------------|------------------------------------------------|
     D|-----------------------------------------------8--|(8)-------10----------8-------------------------|
     A|-(8)-------------------8-----------------------6--|(6)-------8-----------6-----------------6--5--6-|
     E|-(6)-8--8--8--8--8--8--6-----8--8--8--8--8--8-----|----------------------------8--8--8--8----------| 
            .  .  .  .  .  .  >     .  .  .  .  .  .  >             >           >     .  .  .  .

Gtr.1E|--------------------------------------------------|------------------------------------------------|
     B|--------------------------------------------------|------------------------------------------------|
     G|--------------------------------------------------|------------------------------------------------|
     D|--------------------------------------------------|------------------------------------------------|
     A|-(6)-------------6--5--6-----------------------6--|(6)-5-----8-----6--5--6--5--------5-----8-----8-|
     E|-----8--8--8--8--------------8--8--8--8--8--8-----|-------8--------------------8-----3-----6-----6-|
            .  .  .  .              .  .  .  .  .  .          .  .                    .     >     >     >

Gtr.1E|--------------------------------------------------|------------------------------------------------|
     B|--------------------------------------------------|------------------------------------------------|
     G|--------------------------------------------------|------------------------------------------------|
     D|-----------------------------------------------8--|(8)-------10----------8-------------------------|
     A|-(8)-------------------8-----------------------6--|(6)-------8-----------6-----------------6--5--6-|
     E|-(6)-8--8--8--8--8--8--6-----8--8--8--8--8--8-----|----------------------------8--8--8--8----------| 
            .  .  .  .  .  .  >     .  .  .  .  .  .  >             >           >     .  .  .  .

Gtr.1E|--------------------------------------------------|------------------------------------|
     B|--------------------------------------------------|------------------------------------|
     G|--------------------------------------------------|------------------------------------|
     D|--------------------------------------------------|------------------------------------|
     A|-(6)-------------6--5--6-----------------------6--|(6)-5-----8-----6--5--6--5--------5-|
     E|-----8--8--8--8--------------8--8--8--8--8--8-----|-------8--------------------8-----3-|
            .  .  .  .              .  .  .  .  .  .          .  .                    .     >

Gtr.1E|----- 3/4 measure -------------------|
     B|-------------------------------------|
     G|-------------------------------------|
     D|-----------------------------8-------|
     A|-(5)-------------------------6-----6-|
     E|-(3)-------------------------------4-|
                                    >     >
(0:24 - 0:44)
Verse 1:
VоiсеЕ|----------------------------------------------------------------------------------------------------|
     B|-------4--4-4---4--4--------------------------------------------------------------------------------|
     G|------------------------3------3---3----3---3----5--------------------------------------------------|
     D|----------------------------------------------------------------------------------------------------|
     A|----------------------------------------------------------------------------------------------------|
     E|---   Razdelilsya ves´ mir    na  "о - ni"  i  "my"         ----------------------------------------|
      |                                                  |                                                 |
Gtr.1E|--------------------------------------------------|-------------------------------------------------|
     H|--------------------------------------------------|-------------------------------------------------|
     G|--------------------------------------------------|-------------------------------------------------|
     D|-----------------------------------------------5--|(5)-------------------3-/5--------------8--------|
     A|-(6)-------------------8-----------5-----------3--|(3)-------------------1-/3--------------6-----6--|
     E|-(4)-------------------6-----------3--------------|----------------------------------------------4--|
      |                                                  |                                                 |
Gtr.2E|--------------------------------------------------|-------------------------------------------------|
     B|--------------------------------------------------|-------------------------------------------------|
     G|--------------------------------------------------|-------5--5--8--8--5-----------5--5--8--8--7-----|
     D|--------------------------------------------------|----------------------------------------------6--|
     A|--------------------------------------------------|-------------------------------------------------|
     E|--------------------------------------------------|-------------------------------------------------|
 
VоiсеЕ|----------------------------------------------------------------------------------------------------|
     B|-------4---4-4-4---4--------------------------------------------------------------------------------|
     G|------------------------3----3----3------3--3----5--------------------------------------------------|
     D|----------------------------------------------------------------------------------------------------|
     A|----------------------------------------------------------------------------------------------------|
     E|---- Byut nаватоm serdtza    i   bur - lyat u - my     ---------------------------------------------|
      |                                                  |                                                 |
Gtr.1E|--------------------------------------------------|-------------------------------------------------|
     B|--------------------------------------------------|-------------------------------------------------|
     G|--------------------------------------------------|-------------------------------------------------|
     D|-----------------------------------------------5--|(5)-------------------3-/5--------------8--------|
     A|-(6)-------------------8-----------5-----------3--|(3)-------------------1-/3--------------6-----6--|
     E|-(4)-------------------6-----------3--------------|----------------------------------------------4--|
      |                                                  |                                                 |
Gtr.2E|--------------------------------------------------|-------------------------------------------------|
     B|--------------------------------------------------|-------------------------------------------------|
     G|--------------------------------------------------|-------5-5-5-8--8--------------5--5--8--8--7-----|
     D|-(6)----------------------------------------------|----------------------------------------------6--|
     A|--------------------------------------------------|-------------------------------------------------|
     E|--------------------------------------------------|-------------------------------------------------|
 
VоiсеЕ|----------------------------------------------------------------------------------------------------|
     B|-------4--4--4-----4-4--6----6----6-----6----6------------------------------------------------------|
     G|------------------------------------------------5---------------------------------------------------|
     D|----------------------------------------------------------------------------------------------------|
     A|----------------------------------------------------------------------------------------------------|
     E|---  Chey metall tyazheley   i   ver - ney  роsту?         -----------------------------------------|
      |                                                  |                                                 |
Gtr.1E|--------------------------------------------------|-------------------------------------------------|
     B|--------------------------------------------------|-------------------------------------------------|
     G|--------------------------------------------------|-------------------------------------------------|
     D|-----------------------------------------------5--|(5)-------------------3-/5--------------8--------|
     A|-(6)-------------------8-----------5-----------3--|(3)-------------------1-/3--------------6-----6--|
     E|-(4)-------------------6-----------3--------------|----------------------------------------------4--|
      |                                                  |                                                 |
Gtr.2E|--------------------------------------------------|-------------------------------------------------|
     B|--------------------------------------------------|-------------------------------------------------|
     G|--------------------------------------------------|-------5-5-5-8--8--------------5--5--8--8--7-----|
     D|-(6)----------------------------------------------|----------------------------------------------6--|
     A|--------------------------------------------------|-------------------------------------------------|
     E|--------------------------------------------------|-------------------------------------------------|
 
VоiсеЕ|----------------------------------------------------------------------------------------------------|
     B|-------4--4-4---4--4--------------------------------------------------------------------------------|
     G|------------------------3------3--3--3-------3----5-------------------------------------------------|
     D|----------------------------------------------------------------------------------------------------|
     A|----------------------------------------------------------------------------------------------------|
     E|---   Razdelilsya ves´ mir,    отvеснау: "s kem  ty?"  ---------------------------------------------|
      |                                                  |                                                 |
Gtr.1E|--------------------------------------------------|-------------------------------------------------|
     B|--------------------------------------------------|-------------------------------------------------|
     G|--------------------------------------------------|-------------------------------------------------|
     D|--------------------------------------------------|-------------------------------------------------|
     A|-(6)-------------------8-----------------------10-|(10)---------------------------------------------|
     E|-(4)-------------------6-----------------------8--|(8)-------------------8--------------------6--5--|

(0:44 - 1:10)
Chorus:
                                                        S  kem  ty?
Gtr.1E|----------------------------------|----------------------------------|
     B|----------------------------------|----------------------------------|
     G|----------------------------------|----------------------------------|
     D|----------------------3-----------|----------------------------------|
     A|------5---3---6---5-------5-------|----------------------------------|
     E|--3---------------------------6---|-(6)--------------------------6-5-|

Gtr.1E|----------------------------------|----------------------------------|
     B|----------------------------------|----------------------------------|
     G|----------------------------------|----------------------------------|
     D|----------------------3-----------|----------------------------------|
     A|------5---3---6---5-------5-------|----------------------------------|
     E|--3-------------------------6-----|-(6)--------------------------6-5-|
                                                        S  kem  ty?

Gtr.1E|----------------------------------|----------------------------------|
     B|----------------------------------|----------------------------------|
     G|----------------------------------|----------------------------------|
     D|----------------------3-----------|----------------------------------|
     A|------5---3---6---5-------5-------|----------------------------------|
     E|--3---------------------------6---|-(6)--------------------------6-5-|
                                                   S  kem  ty?

Gtr.1E|----------------------------------|----------------------------------|
     B|----------------------------------|----------------------------------|
     G|--------------------------------8-|-(8)------------------------------|
     D|----------------------3---------8-|-(8)------------------------------|
     A|------5---3---6---5-------5-----6-|-(6)------------------------------|
     E|--3---------------------------6---|----------------------------------|
                S  kem  ty?        S  kem  ty?

Gtr.1E|----------------------------------|----------------------------------|
     B|----------------------------------|----------------------------------|
     G|--7-------------------------------|----------------------------------|
     D|--7-------------------------------|----------------------------------|
     A|--5-------------------------------|----------------------------------|
     E|----------------------------------|--3-------------------------------|

(1:10 - 1:33) 
Riff 1´: (Riff 1 withоut the last 3/4-measure):
Gtr.1E|--------------------------------------------------|
     B|--------------------------------------------------|
     G|--------------------------------------------------|
     D|--------------------------------------------------|
     A|-----------------------------------------8-----8--|
     E|-----------------------------------------6-----6--|

Gtr.1E|--------------------------------------------------|-------------------------------------------------|
     B|--------------------------------------------------|-------------------------------------------------|
     G|--------------------------------------------------|-------------------------------------------------|
     D|-----------------------------------------------8--|(8)-------10----------8--------------------------|
     A|-(8)-------------------8-----------------------6--|(6)-------8-----------6-----------------6--5--6--|
     E|-(6)-8--8--8--8--8--8--6-----8--8--8--8--8--8-----|----------------------------8--8--8--8-----------|

Gtr.1E|--------------------------------------------------|-------------------------------------------------|
     B|--------------------------------------------------|-------------------------------------------------|
     G|--------------------------------------------------|-------------------------------------------------|
     D|--------------------------------------------------|-------------------------------------------------|
     A|-(6)-------------6--5--6-----------------------6--|(6)-5-----8-----6--5--6--5--------5-----8-----8--|
     E|-----8--8--8--8--------------8--8--8--8--8--8-----|-------8--------------------8-----3-----6-----6--|

Gtr.1E|--------------------------------------------------|-------------------------------------------------|
     B|--------------------------------------------------|-------------------------------------------------|
     G|--------------------------------------------------|-------------------------------------------------|
     D|-----------------------------------------------8--|(8)-------10----------8--------------------------|
     A|-(8)-------------------8-----------------------6--|(6)-------8-----------6-----------------6--5--6--|
     E|-(6)-8--8--8--8--8--8--6-----8--8--8--8--8--8-----|----------------------------8--8--8--8-----------|

Gtr.1E|--------------------------------------------------|-------------------------------------------------|
     B|--------------------------------------------------|-------------------------------------------------|
     G|--------------------------------------------------|-------------------------------------------------|
     D|--------------------------------------------------|----------------------------------------8--------|
     A|-(6)-------------6--5--6-----------------------6--|(6)-5-----8-----6--5--6--5--------5-----6-----6--|
     E|-----8--8--8--8--------------8--8--8--8--8--8-----|-------8--------------------8-----3-----------4--|

(1:33 - 1:52) Verse 2 = Verse 1
(1:53 - 2:18) Chorus

(2:18 - 2:48)
Bass Solo:
Gtr.1E|--------------------------------------------------|
     B|--------------------------------------------------|
     G|--------------------------------------------------|
     D|--------------------------------------------------|
     A|-----------------------------------------------7--|
     E|-----------------------------------------------5--|
      |                                                  |
Bass G|--------------------------------------------------|
     D|--------------------------------------------------|
     A|-----------------------------------------------0--|
     E|--------------------------------------------------|
 
Gtr.1E||-------------------------------------------------|-------------------------------------------------|
     B||-------------------------------------------------|-------------------------------------------------|
     G||-------------------------------------------------|-------------------------------------------------|
     D||----------------------5-----------7--------------|----------------------5-----------7--------------|
     A||-(7)------------------3-----------5-----------7--|(7)-------------------3-----------5-----------7--|
     E||-(5)------------------------------------------5--|(5)-------------------------------------------5--|
      ||                                                 |                                                 |
Bass G||-------------------------------------------------|-------------------------------------------------|
     D||----------0--2--5--2-------------/7--5-----------|----------0--2--5--2-------------/7--5-----------|
     A||(0)-2--3--------------3-----------------7----0---|(0)-2--3--------------3-----------------7----0---|
     E||-------------------------------------------------|-------------------------------------------------|
 
Gtr.1E|--------------------------------------------------|-------------------------------------------------||
     B|--------------------------------------------------|-------------------------------------------------||
     G|--------------------------------------------------|-------------------------------------------------||
     D|-----------------------5-----------7-----------9--|(9)----------------------------------------------||
     A|--(7)------------------3-----------5-----------7--|(7)-------------------------------------------7--||
     E|--(5)---------------------------------------------|----------------------------------------------5--||
      |                                                  |                                                 ||
Bass G|---------------------------------------------------0h4-0----0h4-0----0h4-0----0h4-0----0h4-0--------||
     D|-----------0--2--5--2-------------/7--5-----------|-------2--------2--------2--------2--------2-----||
     A|-(0)-2--3--------------3-----------------7--------|----------------------------------------------0--||
     E|--------------------------------------------------|-------------------------------------------------||
 
Bass G|--------4--------4--------4-----------------------|--- 6/4 measure ----------------------------------|
     D|-----6--------6--------6--------------------------|--------------------------------------------------|
     A|--7--------7--------7-----------------------------|---???--------------------------------------------|
     E|--------------------------------------------------|--------------------------------------------------|

(2:48 - 3:28)
Solo 2:
Gtr.1E|--------------------------------------------------|-------------------------------------------------|
     B|--------------------------------------------------|-------------------------------------------------|
     G|--------------------------------------------------|-------------------------------------------------|
     D|-----------------------2--------------------------|-------------------------------------------------|
     A|-(0)----2-----3-----0-----------------------------|-------------0--------3--------2-----0-----2-----|
     E|-----------------------------------------------1--|(1)----3--------1--1--------------------------3--|
      |                                                  |                                                 |
Bass G|--------------------------------------------------|-------------------------------------------------|
     D|--------------------------------------------------|-------------------------------------------------|
     A|-(0)----------------------------------2--3--0-----|-------------------------------------------------|
     E|-----------------------------------------------1--|(1)-------------------------------------------3--|
 
Gtr.1E|--------------------------------------------------|-------------------------------------------------|
     B|--------------------------------------------------|-------------------------------------------------|
     G|--------------------------------------------------|-------------------------------------------------|
     D|--------------------------------------------------|-------------------------------------------------|
     A|--------0-----2--------5--------------------------|----------------------5--------3-----2-----3--0--|
     E|-(3)----------------3--------------------------0--|(0)----1-----3--0--0-----------------------------|
      |                                                  |                                                 |
Bass G|--------------------------------------------------|-------------------------------------------------|
     D|--------------------------------------------------|-------------------------------------------------|
     A|--------------------------------------0--2--------|----------------------------------------------0--|
     E|-(3)----------------------------------------3--0--|(0)----------------------------------------------|
 
Gtr.1E|--------------------------------------------------|-------------------------------------------------|
     B|--------------------------------------------------|-------------------------------------------------|
     G|--------------------------------------------------|-------------------------------------------------|
     D|-----------------------2--------------------------|-------------------------------------------------|
     A|-(0)----2-----3-----0-----------------------------|-------------0--------3--------2-----0-----2-----|
     E|-----------------------------------------------1--|(1)----3--------1--1--------------------------3--|
      |                                                  |                                                 |
Bass G|--------------------------------------------------|-------------------------------------------------|
     D|--------------------------------------------------|-------------------------------------------------|
     A|-(0)----------------------------------2--3--0-----|-------------------------------------------------|
     E|-----------------------------------------------1--|(1)-------------------------------------------3--|
 
Gtr.1E|--------------------------------------------------|-------------------------------------------------|
     B|--------------------------------------------------|-------------------------------------------------|
     G|--------------------------------------------------|-------------------------------------------------|
     D|--------------------------------------------------|-------------------------------------------------|
     A|--------0-----2--------5--------------------------|----------------------5--------3-----2-----3--3--|
     E|-(3)----------------3--------------------------0--|(0)----1-----3--0--0-----------------------------|
      |                                                  |                                                 |
Bass G|--------------------------------------------------|-------------------------------------------------|
     D|--------------------------------------------------|-------------------------------------------------|
     A|--------------------------------------0--2--------|----------------------------------------------3--|
     E|-(3)----------------------------------------3--0--|(0)----------------------------------------------|
 
Gtr.1E|--------------------------------------------------|-------------------------------------------------|
     B|--------------------------------------------------|-------------------------------------------------|
     G|--------------------------------------------------|-------------------------------------------------|
     D|-----------------------5--------------------------|-------------------------------------------------|
     A|-(3)----5-----6-----3-----------------------------|-------------3--------6--------5-----3-----5-----|
     E|-----------------------------------------------4--|(4)----6--------4--4--------------------------6--|
      |                                                  |                                                 |
Bass G|--------------------------------------------------|-------------------------------------------------|
     D|--------------------------------------------------|-------------------------------------------------|
     A|-(3)----------------------------------5--6--3-----|-------------------------------------------------|
     E|-----------------------------------------------4--|(4)-------------------------------------------6--|
 
Gtr.1E|--------------------------------------------------|-------------------------------------------------|
     B|--------------------------------------------------|-------------------------------------------------|
     G|--------------------------------------------------|-------------------------------------------------|
     D|--------------------------------------------------|----------------------3--------------------------|
     A|--------------5--------8--------------------------|-------------------------------6-----5-----6--3--|
     E|-(6)----8-----------6--------------------------3--|(3)----4-----6--3--3-----------------------------|
      |                                                  |                                                 | 
Bass G|--------------------------------------------------|-------------------------------------------------|
     D|--------------------------------------------------|-------------------------------------------------|
     A|--------------------------------------3--5--------|----------------------------------------------3--|
     E|-(6)----------------------------------------6--3--|(3)----------------------------------------------|
 
Gtr.1E|--------------------------------------------------|-------------------------------------------------|
     B|--------------------------------------------------|-------------------------------------------------|
     G|--------------------------------------------------|-------------------------------------------------|
     D|-----------------------5--------------------------|-------------------------------------------------|
     A|-(3)----5-----6-----3-----------------------------|-------------3--------6--------5-----3-----5-----|
     E|-----------------------------------------------4--|(4)----6--------4--4--------------------------6--|
      |                                                  |                                                 |
Bass G|--------------------------------------------------|-------------------------------------------------|
     D|--------------------------------------------------|-------------------------------------------------|
     A|-(3)----------------------------------5--6--3-----|-------------------------------------------------|
     E|-----------------------------------------------4--|(4)-------------------------------------------6--|
 
Gtr.1E|--------------------------------------------------|-------------------------------------------------|
     B|--------------------------------------------------|-------------------------------------------------|
     G|--------------------------------------------------|-------------------------------------------------|
     D|--------------------------------------------------|----------------------3-----------------8--------|
     A|--------------5--------8--------------------------|-------------------------------6-----5--6-----6--|
     E|-(6)----8-----------6--------------------------3--|(3)----4-----6--3--3--------------------------4--|
      |                                                  |                                                 | 
Bass G|--------------------------------------------------|-------------------------------------------------|
     D|--------------------------------------------------|-------------------------------------------------|
     A|--------------------------------------3--5--------|----------------------------------------6--------|
     E|-(6)----------------------------------------6--3--|(3)-------------------------------------------4--|

(3:28 - 3:49) Verse 3 = Verse 1
(3:49 - 4:14) Chorus

(4:14 - 4:37) 
Riff 1":
Gtr.1E|--------------------------------------------------|
     B|--------------------------------------------------|
     G|--------------------------------------------------|
     D|--------------------------------------------------|
     A|-----------------------------------------8-----8--|
     E|-----------------------------------------6-----6--|
                                                >     >

Gtr.1E|--------------------------------------------------|-------------------------------------------------|
     B|--------------------------------------------------|-------------------------------------------------|
     G|--------------------------------------------------|-------------------------------------------------|
     D|-----------------------------------------------8--|(8)-------10----------8--------------------------|
     A|-(8)-------------------8-----------------------6--|(6)-------8-----------6-----------------6--5--6--|
     E|-(6)-8--8--8--8--8--8--6-----8--8--8--8--8--8-----|----------------------------8--8--8--8-----------| 
            .  .  .  .  .  .  >     .  .  .  .  .  .  >             >           >     .  .  .  .

Gtr.1E|--------------------------------------------------|-------------------------------------------------|
     B|--------------------------------------------------|-------------------------------------------------|
     G|--------------------------------------------------|-------------------------------------------------|
     D|--------------------------------------------------|-------------------------------------------------|
     A|-(6)-------------6--5--6-----------------------6--|(6)-5-----8-----6--5--6--5--------5-----8-----8--|
     E|-----8--8--8--8--------------8--8--8--8--8--8-----|-------8--------------------8-----3-----6-----6--|
            .  .  .  .              .  .  .  .  .  .          .  .                    .     >     >     >

Gtr.1E|--------------------------------------------------|-------------------------------------------------|
     B|--------------------------------------------------|-------------------------------------------------|
     G|--------------------------------------------------|-------------------------------------------------|
     D|-----------------------------------------------8--|(8)-------10----------8--------------------------|
     A|-(8)-------------------8-----------------------6--|(6)-------8-----------6-----------------6--5--6--|
     E|-(6)-8--8--8--8--8--8--6-----8--8--8--8--8--8-----|----------------------------8--8--8--8-----------| 
            .  .  .  .  .  .  >     .  .  .  .  .  .  >             >           >     .  .  .  .

Gtr.1E|--------------------------------------------------|-------------------------------------------------|
     H|--------------------------------------------------|-------------------------------------------------|
     G|--------------------------------------------------|-------------------------------------------------|
     D|--------------------------------------------------|-------------------------------------------------|
     A|-(6)-------------6--5--6-----------------------6--|(6)-5-----8-----6--5--6--5--------5-----8-----10-|
     E|-----8--8--8--8--------------8--8--8--8--8--8-----|-------8--------------------8-----3-----6-----8--|
            .  .  .  .              .  .  .  .  .  .          .  .                    .     >     >     >

Комментарий автора:

Текст песни: 
 
Разделился весь мир на они и мы
Бьют набатом сердца и бурлят умы
Чей метал тяжелей и верней посты
Разделился весь мир, отвечай: - "С кем ты?"

Припев:
С кем ты?

Кто скажи мне кричал: "Покорись Восток"
Как слепой автомат нажимал на курок
Кто, надев балахон, зажигал кресты?
Разделился весь мир, отвечай: - "С кем ты?"

Припев:
С кем ты?

Не остался в живых, если вдруг гроза
Там не стой как чужой, опустив глаза
Только действиям счет отдавал пустым
Разделился весь мир, отвечай: - "С кем ты?"

Припев:
С кем ты?
 
 

Видео