Ария - Беспечный ангел, аккорды

Прокрутка
Тональность
Шрифт
100
Вступление: Em C G }x2 
E--------------------------------------------------------------------------
B-----------------0-------------1----------------3---------------3---------
G---------------0---0---------0-----0---0-----0-----0---0-----0------------
D-------0-----2-------2-----2-----2---2-----0-----0---0-----0-----------0--
A---0-2-----2-----------2-3-----------------------------------------0-2----
E-3-------0-------------------------------3---------------3--------3-------

---------------------------------------------3--------|
----------0-------------1----------------0---0--------|
-------0--0---------0-----0---0-----0-------0---------|
----2-------2-----2-----2---2-----0-----------0-------|
---2-----------2-3------------------------------------|
---0-------------------------------3----------------3-|

1 КУПЛЕТ: Em C G Em C D Am D G Am D Em C D
Этот парень был из тех, кто просто любит жизнь,
E-----------------------------------------------------------------
B-----------------0-------------1---------------3---------------3-
G---------------0---0---------0-----0---0-----0-----0---0-----0---
D-------0-----2-------2-----2-----2---2-----0-----0---0-----0-----
A---0-2-----2-----------2-3---------------------------------------
E-3-------0-------------------------------3---------------3-------

Любит праздники и громкий смех, пыль дорог и ветра свист,
E-----------------------------------------------2-3-2-----------2-0-----0-
B-----------------0-------------1-------------3-------3-------3-----3-----
G---------------0---0---------0-----0---0---2-----------2---2---------2---
D-------0-----2-------2-----2-----2---2---0---------------0---------------
A---0-2-----2-----------2-3-----------------------------------------------
E-3-------0---------------------------------------------------------------

Он был везде и всегда своим, влюблял в себя целый свет
E---------0---------------3-------------2-3-2--------------0------
B-------1---1-----------0---0---------3-------3----------1---1----
G-----2-------2-------0-------0-----2-----------2------2-------2--
D---2-----------2---0-----------2-0------------------2-----------2
A-0------------------------------------------------0--------------
E-----------------3-----------------------------------------------

И гнал свой байк, а не лимузин, таких друзей больше нет!
E-------2-3-2-------------0---------------0--------2--3-3-3-2-
B-----3-------3---------0---0-----------1---1-----3--3-3-3-3--
G---2-----------2-----0-------0-------0-------0---2--2-2-2-2--
D-0-----------------2-----------2---2-----------2-0-----------
A---------------------------------3---------------------------
E-----------------0-------------------------------------------

2 куплет:
И в гостиной при свечах он танцевал, как Бог,
E-----------------------------------------------------------------
B-----------------0-------------1---------------3---------------3-
G---------------0---0---------0-----0---0-----0-----0---0-----0---
D-------0-----2-------2-----2-----2---2-----0-----0---0-----0-----
A---0-2-----2-----------2-3---------------------------------------
E-3-------0-------------------------------3---------------3-------

Но зато менялся на глазах, только вспомнит шум дорог,
E-----------------------------------------------2-3-2-----------2-0-----0-
B-----------------0-------------1-------------3-------3-------3-----3-----
G---------------0---0---------0-----0---0---2-----------2---2---------2---
D-------0-----2-------2-----2-----2---2---0---------------0---------------
A---0-2-----2-----------2-3-----------------------------------------------
E-3-------0---------------------------------------------------------------

Все, что имел, тут же тратил, и за порог сделав шаг,
E---------0---------------3-------------2-3-2--------------0------
B-------1---1-----------0---0---------3-------3----------1---1----
G-----2-------2-------0-------0-----2-----------2------2-------2--
D---2-----------2---0-----------2-0------------------2-----------2
A-0------------------------------------------------0--------------
E-----------------3-----------------------------------------------

Мой друг давал команду братьям, вверх поднимая кулак!
E-------2-3-2-------------0---------------0--------2--3-3-3-2-
B-----3-------3---------0---0-----------1---1-----3--3-3-3-3--
G---2-----------2-----0-------0-------0-------0---2--2-2-2-2--
D-0-----------------2-----------2---2-----------2-0-----------
A---------------------------------3---------------------------
E-----------------0-------------------------------------------

Припев: (играется боем)
              Em     C      D
Ты - летящий вдаль, вдаль ангел,
             C      B7     Em
Ты летящий вдаль, вдаль ангел,
     C                       D
Ты один другу друг, друг на все времена,
     C               D
Не много таких среди нас!    
            Am        C        G
Ты летящий вдаль, беспечный ангел!
 
Проигрыш: (играется также, как вступление)
E--------------------------------------------------------------------------
B-----------------0-------------1----------------3---------------3---------
G---------------0---0---------0-----0---0-----0-----0---0-----0------------
D-------0-----2-------2-----2-----2---2-----0-----0---0-----0-----------0--
A---0-2-----2-----------2-3-----------------------------------------0-2----
E-3-------0-------------------------------3---------------3--------3-------

---------------------------------------------3--------|
----------0-------------1----------------0---0--------|
-------0--0---------0-----0---0-----0-------0---------|
----2-------2-----2-----2---2-----0-----------0-------|
---2-----------2-3------------------------------------|
---0-------------------------------3----------------3-|

3 куплет:
Под гитарный жесткий рок, который так любил,
E-----------------------------------------------------------------
B-----------------0-------------1---------------3---------------3-
G---------------0---0---------0-----0---0-----0-----0---0-----0---
D-------0-----2-------2-----2-----2---2-----0-----0---0-----0-----
A---0-2-----2-----------2-3---------------------------------------
E-3-------0-------------------------------3---------------3-------

На ХАРЛЕЕ он домчать нас мог до небес и звезд любых, 
E-----------------------------------------------2-3-2-----------2-0-----0-
B-----------------0-------------1-------------3-------3-------3-----3-----
G---------------0---0---------0-----0---0---2-----------2---2---------2---
D-------0-----2-------2-----2-----2---2---0---------------0---------------
A---0-2-----2-----------2-3-----------------------------------------------
E-3-------0---------------------------------------------------------------

Но он исчез, и никто не знал, куда теперь мчит его байк,
E---------0---------------3-------------2-3-2--------------0------
B-------1---1-----------0---0---------3-------3----------1---1----
G-----2-------2-------0-------0-----2-----------2------2-------2--
D---2-----------2---0-----------2-0------------------2-----------2
A-0------------------------------------------------0--------------
E-----------------3-----------------------------------------------

Один бродяга нам сказал, что он отправился в Рай!
E-------2-3-2-------------0---------------0--------2--3-3-3-2-
B-----3-------3---------0---0-----------1---1-----3--3-3-3-3--
G---2-----------2-----0-------0-------0-------0---2--2-2-2-2--
D-0-----------------2-----------2---2-----------2-0-----------
A---------------------------------3---------------------------
E-----------------0-------------------------------------------

Припев: (играется боем)
              Em     C      D
Ты - летящий вдаль, вдаль ангел,
             C      B7     Em
Ты - летящий вдаль, вдаль ангел, 
     C                       D
Но он стал союзником рая в ту ночь 
     C            D
Против тебя одного!    
            Am        C        G
Ты летящий вдаль, беспечный ангел!

              Em     C      D
Ты - летящий вдаль, вдаль ангел,
             C      B7     Em
Ты - летящий вдаль, вдаль ангел, 
     C                       D
Но он стал союзником рая в ту ночь
     C            D
Против тебя одного!    
            Am        C      G
Ты летящий вдаль, вдаль ангел!
            Am        C        G
Ты летящий вдаль, беспечный ангел!

Комментарий автора:

Чтобы удобней было разбираться в табулатуре, разверните документ!
 
 
Свернуть Распечатать

Видео