Ария - Кто ты?, аккорды

Прокрутка
Тональность
Шрифт
100
1-Й КУПЛЕТ:
-----------------------------------------------------------------
-----------------------------------------------------------------
-2-----0-----0-------------------2-----0-------0-7---5---7---5---
---4-----2-----2-4-----24----2-----4-----2---2-------------------
-------------------5-----3-----3-------------------0---0---0---0-
-----0-----0---------0-----0---------0-----0---------------------
сно -  ва   в пол -   ночь      слы -  шу       чей- то  го-лос

-----------------------------------------------------------------0-------
---------------------------------------0--------------------------0-0----
-2-----0-----0-------------------2-------0-----0-7---5---4---2-----0-----
---4-----2-----2-4-----24----2-----4---------2-----------------------452-
-------------------5-----3-----3-----------------------------------------
-----0-----0---------0-----0---------0-----0-------0---0---0---0---------
шеп - чет        и -  мя        ма  - нит        и  зо- вет ме - ня

-------------------------------------------------0------------------
-8-----7-----7---5-----4-----4---1-----4-------4---4----------------
---9-----8-----8---5-----5-----5---2-----5---5----------------------
-----------------------------------------------------5---5-4-2-1----
-----0-----0---------0-----0---------0-----0---------------------3-2
--------------------------------------------------------------------
   и  бе- лым     ту- ма- ном           на сте-клах чей - то вздох оставлен

-------------------------------------------------0---3-----2------------
-8-----7-----7---5-----4-----4---1-----4-------4---4---5-----4----------
---9-----8-----8---5-----5-----5---2-----5---5-----------5--------------
---------------------------------------------------------------5-4------
-----0-----0---------0-----0---------0-----0-----------------------3-2--
-----------------------------------------------------------------------3
   и  гас-нет   вдруг пла-мя            хотя   нет  вет -  ра

-----------------------------------------------------------------0-------
---------------------------------------0--------------------------0-0----
-2-----0-----0-------------------2-------0-----0-7---5---4---2-----0-----
---4-----2-----2-4-----24----2-----4---------2-----------------------452-
-------------------5-----3-----3-----------------------------------------
-----0-----0---------0-----0---------0-----0-------0---0---0---0---------
 ви - жу        тень   я        кто - то     в  чер-ном  у   ок-на

ПРИПЕВ:
   C  B        Em        G     F#
 Кто ты - наказанье или милость?
 
 Кто ты? Отрекаться не спеши.

 Может за душой моей явилась...
  C      A     Em 
 Только нет души.

2-Й КУПЛЕТ:
-----------------------------------------------------------------
-----------------------------------------------------------------
-2-----0-----0-------------------2-----0-------0-7---5---7---5---
---4-----2-----2-4-----24----2-----4-----2---2-------------------
-------------------5-----3-----3-------------------0---0---0---0-
-----0-----0---------0-----0---------0-----0---------------------
 Проклят, брошен, словно камень с неба.

-----------------------------------------------------------------0-------
---------------------------------------0--------------------------0-0----
-2-----0-----0-------------------2-------0-----0-7---5---4---2-----0-----
---4-----2-----2-4-----24----2-----4---------2-----------------------452-
-------------------5-----3-----3-----------------------------------------
-----0-----0---------0-----0---------0-----0-------0---0---0---0---------
 Страшно падать, только ждать еще страшней.

-------------------------------------------------0------------------
-8-----7-----7---5-----4-----4---1-----4-------4---4----------------
---9-----8-----8---5-----5-----5---2-----5---5----------------------
-----------------------------------------------------5---5-4-2-1----
-----0-----0---------0-----0---------0-----0---------------------3-2
--------------------------------------------------------------------
 Все помнить и жаждать любви, но быть распятым ею

-------------------------------------------------0---3-----2------------
-8-----7-----7---5-----4-----4---1-----4-------4---4---5-----4----------
---9-----8-----8---5-----5-----5---2-----5---5-----------5--------------
---------------------------------------------------------------5-4------
-----0-----0---------0-----0---------0-----0-----------------------3-2--
-----------------------------------------------------------------------3
 И мчаться к безумью, услышав голос...

-----------------------------------------------------------------0-------
---------------------------------------0--------------------------0-0----
-2-----0-----0-------------------2-------0-----0-7---5---4---2-----0-----
---4-----2-----2-4-----24----2-----4---------2-----------------------452-
-------------------5-----3-----3-----------------------------------------
-----0-----0---------0-----0---------0-----0-------0---0---0---0---------
 Ровно в полночь снова тень идет ко мне.

ПРИПЕВ:
   C  B        Em        G     F#
 Кто ты - наказанье или милость?
 
 Кто ты? Отрекаться не спеши.

 Может за душой моей явилась...
  C      A     Em 
 Только нет души.
 
 
Свернуть Распечатать

Видео