Ария - Будем жить, мать Россия, аккорды

Прокрутка
Тональность
Шрифт
100
Intro: (Вообще то вступление играется на органе, 
но если положить на гитару, то будет примерно так)
E--------------------------------------
B--------------------------------------
G--------------------------------------
D------------------------5-7-9-7-5-7-9-
A----7-9-10-9-7-5-2--------------------
E--------------------------------------

E------------------------------------
B------------------------------------
G------------------------------------
D----4-4-6-7-6-4-6-6-7-6-4-3-4-------
A--------------------------------7-6-
E------------------------------------

E--------------------------------------
B--------------------------------------
G--------------------------------------
D------------------------5-7-9-7-5-7-9-
A----7-9-10-9-7-5-2--------------------
E--------------------------------------

E------------------------------
B------------------------------
G------------------------------
D----4-4-6-7-6-4-6-6-7-6-4-3-4-
A------------------------------
E------------------------------

Жестко: x4 
E----------------------------
B----------------------------
G----5-5-5-5-5-5-5-5-5-5-5-5-
D----5-5-5-5-5-5-5-5-5-5-5-5-
A----3-3-3-3-3-3-3-3-3-3-3-3-
E----------------------------

Verse 1:
  C
E-------------------------------
B-------------------------------
G-5-5-5-5-5-5-5-5-5-5-5-5-5-5-5-
D-5-5-5-5-5-5-5-5-5-5-5-5-5-5-5-
A-3-3-3-3-3-3-3-3-3-3-3-3-3-3-3-
E-------------------------------
 Эй, гони-ка ,парень, с ветерком,
   
  G#                 C
E------------------------------------
B------------------------------------
G--------------------5-5-5-5-5-5-5-5-
D-6-6-6-6-6-6-6-6-6--5-5-5-5-5-5-5-5-
A-6-6-6-6-6-6-6-6-6--3-3-3-3-3-3-3-3-
E-4-4-4-4-4-4-4-4-4------------------
Чтобы пела кровь, и пыль столбом.

  C
E-------------------------------------
B-------------------------------------
G-5-5-5-5-5-5-5-5-5-5-5-5-5-5-5-5-5-5-
D-5-5-5-5-5-5-5-5-5-5-5-5-5-5-5-5-5-5-
A-3-3-3-3-3-3-3-3-3-3-3-3-3-3-3-3-3-3-
E-------------------------------------
 Пусть нам свистнет старый леший вслед,
   
  G#                   C
E----------------------------------------
B----------------------------------------
G----------------------5-5-5-5-5-5-5-5-5-
D-6-6-6-6-6-6-6-6-6-6--5-5-5-5-5-5-5-5-5-
A-6-6-6-6-6-6-6-6-6-6--3-3-3-3-3-3-3-3-5-
E-4-4-4-4-4-4-4-4-4-4--------------------
 Ведьма спрячет в чаще белый свет.

  Dm    
E-----------------------------------------
B-----------------------------------------
G-7-7-7-7-7-7-7-7-7-7-7-7-7-7-7-7-7-7-7-7-
D-7-7-7-7-7-7-7-7-7-7-7-7-7-7-7-7-7-7-7-7-
A-5-5-5-5-5-5-5-5-5-5-5-5-5-5-5-5-5-5-5-5-
E-----------------------------------------
 По родным дорогам, темным и убогим,

  Bb
E-----------------------------------------
B-----------------------------------------
G-3-3-3-3-3-3-3-3-3-3-3-3-3-3-3-3-3-3-3-3-
D-3-3-3-3-3-3-3-3-3-3-3-3-3-3-3-3-3-3-3-3-
A-1-1-1-1-1-1-1-1-1-1-1-1-1-1-1-1-1-1-1-1-
E-----------------------------------------
К черту в пасть, чтоб пропасть.

  Dm
E-----------------------------------------
B-----------------------------------------
G-7-7-7-7-7-7-7-7-7-7-7-7-7-7-7-7-7-7-7-7-
D-7-7-7-7-7-7-7-7-7-7-7-7-7-7-7-7-7-7-7-7-
A-5-5-5-5-5-5-5-5-5-5-5-5-5-5-5-5-5-5-5-5-
E-----------------------------------------
  А потом воскреснуть и на том же месте 
   
  Bb                A
E-------------------------------
B-------------------------------
G-3-3-3-3-3-3-3-3-3-2-2-2-2-2-2-
D-3-3-3-3-3-3-3-3-3-2-2-2-2-2-2-
A-1-1-1-1-1-1-1-1-1-0-0-0-0-0-0-
E-------------------------------
Крест вознести золотой.

Verse 2:
  C
E-------------------------------
B-------------------------------
G-5-5-5-5-5-5-5-5-5-5-5-5-5-5-5-
D-5-5-5-5-5-5-5-5-5-5-5-5-5-5-5-
A-3-3-3-3-3-3-3-3-3-3-3-3-3-3-3-
E-------------------------------
Справа волнами то смех, то мат,

  G#                 C
E------------------------------------
B------------------------------------
G--------------------5-5-5-5-5-5-5-5-
D-6-6-6-6-6-6-6-6-6--5-5-5-5-5-5-5-5-
A-6-6-6-6-6-6-6-6-6--3-3-3-3-3-3-3-3-
E-4-4-4-4-4-4-4-4-4------------------
Кто-то бьет из пушки наугад.

  C
E-------------------------------------
B-------------------------------------
G-5-5-5-5-5-5-5-5-5-5-5-5-5-5-5-5-5-5-
D-5-5-5-5-5-5-5-5-5-5-5-5-5-5-5-5-5-5-
A-3-3-3-3-3-3-3-3-3-3-3-3-3-3-3-3-3-3-
E-------------------------------------
Слева тишь да божья благодать,

  G#                   C
E----------------------------------------
B----------------------------------------
G----------------------5-5-5-5-5-5-5-5-5-
D-6-6-6-6-6-6-6-6-6-6--5-5-5-5-5-5-5-5-5-
A-6-6-6-6-6-6-6-6-6-6--3-3-3-3-3-3-3-3-5-
E-4-4-4-4-4-4-4-4-4-4--------------------
Нет, умом тебя мне не понять.

  Dm    
E-----------------------------------------
B-----------------------------------------
G-7-7-7-7-7-7-7-7-7-7-7-7-7-7-7-7-7-7-7-7-
D-7-7-7-7-7-7-7-7-7-7-7-7-7-7-7-7-7-7-7-7-
A-5-5-5-5-5-5-5-5-5-5-5-5-5-5-5-5-5-5-5-5-
E-----------------------------------------
Тут и там седые, странные босые,

  Bb
E-----------------------------------------
B-----------------------------------------
G-3-3-3-3-3-3-3-3-3-3-3-3-3-3-3-3-3-3-3-3-
D-3-3-3-3-3-3-3-3-3-3-3-3-3-3-3-3-3-3-3-3-
A-1-1-1-1-1-1-1-1-1-1-1-1-1-1-1-1-1-1-1-1-
E-----------------------------------------
А в глазах - небеса.

  Dm
E-----------------------------------------
B-----------------------------------------
G-7-7-7-7-7-7-7-7-7-7-7-7-7-7-7-7-7-7-7-7-
D-7-7-7-7-7-7-7-7-7-7-7-7-7-7-7-7-7-7-7-7-
A-5-5-5-5-5-5-5-5-5-5-5-5-5-5-5-5-5-5-5-5-
E-----------------------------------------
Выпьют и закусят, все до нитки спустят,
   
  Bb                A
E-------------------------------
B-------------------------------
G-3-3-3-3-3-3-3-3-3-2-2-2-2-2-2-
D-3-3-3-3-3-3-3-3-3-2-2-2-2-2-2-
A-1-1-1-1-1-1-1-1-1-0-0-0-0-0-0-
E-------------------------------
Нрав свой покажут крутой.

Chorus 1:
  Em                  Bm
E---------------------------
B---------------------------
G-9-9-9-9-9-9-9-9-9-9-4-4-4-
D-9-9-9-9-9-9-9-9-9-9-4-4-4-
A-7-7-7-7-7-7-7-7-7-7-2-2-2-
E---------------------------
 Будем жить, Мать Россия!
 
   G             A
E-------------------------
B-------------------------
G-------------------------
D--5-5-5-5-5-5-5-7-7-7-7--
A--5-5-5-5-5-5-5-7-7-7-7--
E--3-3-3-3-3-3-3-5-5-5-5--
С нами крестная сила.

   F#                    G#m               F#    G#m
E------------------------------------------------------
B------------------------------------------------------
G------------------------------------------------------
D--4-4-4-4-4-4-4-4-4-4-4-6-6-6-6-6-6-6-6-6-4-4-4-6-6-6-
A--4-4-4-4-4-4-4-4-4-4-4-6-6-6-6-6-6-6-6-6-4-4-4-6-6-6-
E--2-2-2-2-2-2-2-2-2-2-2-4-4-4-4-4-4-4-4-4-2-2-2-4-4-4-
  Нет той беды, что пройдет мимо нас стороной.

Em            Bm
E-------------------
B-------------------
G-9-9-9-9-9-9-4-4-4-
D-9-9-9-9-9-9-4-4-4-
A-7-7-7-7-7-7-2-2-2-
E-------------------
 Были Орды и ханы,
  
    G        A
E------------------------
B------------------------
G------------------------
D--5-5-5-5-5-7-7-7-7-----
A--5-5-5-5-5-7-7-7-7-----
E--3-3-3-3-3-5-5-5-5-----
 Грозные атаманы,

   F#            G#m               F#    G#m        
E----------------------------------------------
B----------------------------------------------
G----------------------------------------------
D--4-4-4-4-4-4-4-6-6-6-6-6-6-6-6-6-4-4-4-6-6-6-
A--4-4-4-4-4-4-4-6-6-6-6-6-6-6-6-6-4-4-4-6-6-6-
E--2-2-2-2-2-2-2-4-4-4-4-4-4-4-4-4-2-2-2-4-4-4-
  Но последнее слово всегда за тобой!

Verse 3:
  C
E-------------------------------
B-------------------------------
G-5-5-5-5-5-5-5-5-5-5-5-5-5-5-5-
D-5-5-5-5-5-5-5-5-5-5-5-5-5-5-5-
A-3-3-3-3-3-3-3-3-3-3-3-3-3-3-3-
E-------------------------------
Эй, гони-ка, парень, с ветерком,

  G#                 C
E------------------------------------
B------------------------------------
G--------------------5-5-5-5-5-5-5-5-
D-6-6-6-6-6-6-6-6-6--5-5-5-5-5-5-5-5-
A-6-6-6-6-6-6-6-6-6--3-3-3-3-3-3-3-3-
E-4-4-4-4-4-4-4-4-4------------------
К черту думы о лихом былом!

  C
E-------------------------------------
B-------------------------------------
G-5-5-5-5-5-5-5-5-5-5-5-5-5-5-5-5-5-5-
D-5-5-5-5-5-5-5-5-5-5-5-5-5-5-5-5-5-5-
A-3-3-3-3-3-3-3-3-3-3-3-3-3-3-3-3-3-3-
E-------------------------------------
Грянем песню, да на весь окрест,

  G#                   C
E----------------------------------------
B----------------------------------------
G----------------------5-5-5-5-5-5-5-5-5-
D-6-6-6-6-6-6-6-6-6-6--5-5-5-5-5-5-5-5-5-
A-6-6-6-6-6-6-6-6-6-6--3-3-3-3-3-3-3-3-5-
E-4-4-4-4-4-4-4-4-4-4--------------------
Бог не выдаст, свинья не съест.

  Dm    
E-----------------------------------------
B-----------------------------------------
G-7-7-7-7-7-7-7-7-7-7-7-7-7-7-7-7-7-7-7-7-
D-7-7-7-7-7-7-7-7-7-7-7-7-7-7-7-7-7-7-7-7-
A-5-5-5-5-5-5-5-5-5-5-5-5-5-5-5-5-5-5-5-5-
E-----------------------------------------
По родным дорогам, темным и убогим,

  Bb
E-----------------------------------------
B-----------------------------------------
G-3-3-3-3-3-3-3-3-3-3-3-3-3-3-3-3-3-3-3-3-
D-3-3-3-3-3-3-3-3-3-3-3-3-3-3-3-3-3-3-3-3-
A-1-1-1-1-1-1-1-1-1-1-1-1-1-1-1-1-1-1-1-1-
E-----------------------------------------
К черту в пасть, эх, не в масть!

  Dm
E-----------------------------------------
B-----------------------------------------
G-7-7-7-7-7-7-7-7-7-7-7-7-7-7-7-7-7-7-7-7-
D-7-7-7-7-7-7-7-7-7-7-7-7-7-7-7-7-7-7-7-7-
A-5-5-5-5-5-5-5-5-5-5-5-5-5-5-5-5-5-5-5-5-
E-----------------------------------------
А потом воскреснуть и на том же месте 
   
  Bb                A
E-------------------------------
B-------------------------------
G-3-3-3-3-3-3-3-3-3-2-2-2-2-2-2-
D-3-3-3-3-3-3-3-3-3-2-2-2-2-2-2-
A-1-1-1-1-1-1-1-1-1-0-0-0-0-0-0-
E-------------------------------
Крест вознести золотой.

Chorus 1:
  Em                  Bm
E---------------------------
B---------------------------
G-9-9-9-9-9-9-9-9-9-9-4-4-4-
D-9-9-9-9-9-9-9-9-9-9-4-4-4-
A-7-7-7-7-7-7-7-7-7-7-2-2-2-
E---------------------------
 Будем жить, Мать Россия!
 
   G             A
E-------------------------
B-------------------------
G-------------------------
D--5-5-5-5-5-5-5-7-7-7-7--
A--5-5-5-5-5-5-5-7-7-7-7--
E--3-3-3-3-3-3-3-5-5-5-5--
С нами крестная сила.

   F#                    G#m               F#    G#m
E------------------------------------------------------
B------------------------------------------------------
G------------------------------------------------------
D--4-4-4-4-4-4-4-4-4-4-4-6-6-6-6-6-6-6-6-6-4-4-4-6-6-6-
A--4-4-4-4-4-4-4-4-4-4-4-6-6-6-6-6-6-6-6-6-4-4-4-6-6-6-
E--2-2-2-2-2-2-2-2-2-2-2-4-4-4-4-4-4-4-4-4-2-2-2-4-4-4-
  Нет той беды, что пройдет мимо нас стороной.

Em            Bm
E-------------------
B-------------------
G-9-9-9-9-9-9-4-4-4-
D-9-9-9-9-9-9-4-4-4-
A-7-7-7-7-7-7-2-2-2-
E-------------------
 Были Орды и ханы,
  
    G        A
E------------------------
B------------------------
G------------------------
D--5-5-5-5-5-7-7-7-7-----
A--5-5-5-5-5-7-7-7-7-----
E--3-3-3-3-3-5-5-5-5-----
 Грозные атаманы,

   F#            G#m               F#    G#m        
E----------------------------------------------
B----------------------------------------------
G----------------------------------------------
D--4-4-4-4-4-4-4-6-6-6-6-6-6-6-6-6-4-4-4-6-6-6-
A--4-4-4-4-4-4-4-6-6-6-6-6-6-6-6-6-4-4-4-6-6-6-
E--2-2-2-2-2-2-2-4-4-4-4-4-4-4-4-4-2-2-2-4-4-4-
  Но последнее слово всегда за тобой!

Verse 4:
  C
E-------------------------------
B-------------------------------
G-5-5-5-5-5-5-5-5-5-5-5-5-5-5-5-
D-5-5-5-5-5-5-5-5-5-5-5-5-5-5-5-
A-3-3-3-3-3-3-3-3-3-3-3-3-3-3-3-
E-------------------------------
Эй, гони-ка, парень, на простор,

  G#                 C
E------------------------------------
B------------------------------------
G--------------------5-5-5-5-5-5-5-5-
D-6-6-6-6-6-6-6-6-6--5-5-5-5-5-5-5-5-
A-6-6-6-6-6-6-6-6-6--3-3-3-3-3-3-3-3-
E-4-4-4-4-4-4-4-4-4------------------
Нам не страшен ни один забор.

  C
E-------------------------------------
B-------------------------------------
G-5-5-5-5-5-5-5-5-5-5-5-5-5-5-5-5-5-5-
D-5-5-5-5-5-5-5-5-5-5-5-5-5-5-5-5-5-5-
A-3-3-3-3-3-3-3-3-3-3-3-3-3-3-3-3-3-3-
E-------------------------------------
Вновь меняя пряники на кнут,

  G#                   C
E----------------------------------------
B----------------------------------------
G----------------------5-5-5-5-5-5-5-5-5-
D-6-6-6-6-6-6-6-6-6-6--5-5-5-5-5-5-5-5-5-
A-6-6-6-6-6-6-6-6-6-6--3-3-3-3-3-3-3-3-5-
E-4-4-4-4-4-4-4-4-4-4--------------------
И веками люди чуда ждут.

  Dm    
E-----------------------------------------
B-----------------------------------------
G-7-7-7-7-7-7-7-7-7-7-7-7-7-7-7-7-7-7-7-7-
D-7-7-7-7-7-7-7-7-7-7-7-7-7-7-7-7-7-7-7-7-
A-5-5-5-5-5-5-5-5-5-5-5-5-5-5-5-5-5-5-5-5-
E-----------------------------------------
Мчатся по дорогам, темным и убогим,

  Bb
E-----------------------------------------
B-----------------------------------------
G-3-3-3-3-3-3-3-3-3-3-3-3-3-3-3-3-3-3-3-3-
D-3-3-3-3-3-3-3-3-3-3-3-3-3-3-3-3-3-3-3-3-
A-1-1-1-1-1-1-1-1-1-1-1-1-1-1-1-1-1-1-1-1-
E-----------------------------------------
К черту в пасть, чтоб пропасть.

  Dm
E-----------------------------------------
B-----------------------------------------
G-7-7-7-7-7-7-7-7-7-7-7-7-7-7-7-7-7-7-7-7-
D-7-7-7-7-7-7-7-7-7-7-7-7-7-7-7-7-7-7-7-7-
A-5-5-5-5-5-5-5-5-5-5-5-5-5-5-5-5-5-5-5-5-
E-----------------------------------------
А потом воскреснут и на том же месте 
   
  Bb                A
E-------------------------------
B-------------------------------
G-3-3-3-3-3-3-3-3-3-2-2-2-2-2-2-
D-3-3-3-3-3-3-3-3-3-2-2-2-2-2-2-
A-1-1-1-1-1-1-1-1-1-0-0-0-0-0-0-
E-------------------------------
Крест вознесут золотой.

Chorus 2:
  Em                  Bm
E---------------------------
B---------------------------
G-9-9-9-9-9-9-9-9-9-9-4-4-4-
D-9-9-9-9-9-9-9-9-9-9-4-4-4-
A-7-7-7-7-7-7-7-7-7-7-2-2-2-
E---------------------------
 Будем жить, Мать Россия!
 
   G             A
E-------------------------
B-------------------------
G-------------------------
D--5-5-5-5-5-5-5-7-7-7-7--
A--5-5-5-5-5-5-5-7-7-7-7--
E--3-3-3-3-3-3-3-5-5-5-5--
С нами крестная сила.

   F#                    G#m               F#    G#m
E------------------------------------------------------
B------------------------------------------------------
G------------------------------------------------------
D--4-4-4-4-4-4-4-4-4-4-4-6-6-6-6-6-6-6-6-6-4-4-4-6-6-6-
A--4-4-4-4-4-4-4-4-4-4-4-6-6-6-6-6-6-6-6-6-4-4-4-6-6-6-
E--2-2-2-2-2-2-2-2-2-2-2-4-4-4-4-4-4-4-4-4-2-2-2-4-4-4-
  Не впервой рисковать нам своей головой.

Em            Bm
E-------------------
B-------------------
G-9-9-9-9-9-9-4-4-4-
D-9-9-9-9-9-9-4-4-4-
A-7-7-7-7-7-7-2-2-2-
E-------------------
 Были Орды и ханы,
  
    G        A
E------------------------
B------------------------
G------------------------
D--5-5-5-5-5-7-7-7-7-----
A--5-5-5-5-5-7-7-7-7-----
E--3-3-3-3-3-5-5-5-5-----
 Грозные атаманы,

   F#            G#m               F#    G#m        
E----------------------------------------------
B----------------------------------------------
G----------------------------------------------
D--4-4-4-4-4-4-4-6-6-6-6-6-6-6-6-6-4-4-4-6-6-6-
A--4-4-4-4-4-4-4-6-6-6-6-6-6-6-6-6-4-4-4-6-6-6-
E--2-2-2-2-2-2-2-4-4-4-4-4-4-4-4-4-2-2-2-4-4-4-
  Но последнее слово всегда за тобой!

Outro=Intro:
E--------------------------------------
B--------------------------------------
G--------------------------------------
D------------------------5-7-9-7-5-7-9-
A----7-9-10-9-7-5-2--------------------
E--------------------------------------

E------------------------------------
B------------------------------------
G------------------------------------
D----4-4-6-7-6-4-6-6-7-6-4-3-4-------
A--------------------------------7-6-
E------------------------------------

E--------------------------------------
B--------------------------------------
G--------------------------------------
D------------------------5-7-9-7-5-7-9-
A----7-9-10-9-7-5-2--------------------
E--------------------------------------

E------------------------------
B------------------------------
G------------------------------
D----4-4-6-7-6-4-6-6-7-6-4-3-4-
A------------------------------
E------------------------------
 
 

Видео