Ария - Закат, аккорды

Прокрутка
Тональность
Шрифт
100
Intro:
e|-----4-2-0h2p0-----------|---4-2-0h2p0---------------|
B|---0-----------4-2--2--0-|--0----------4-2--0--2-2-4-|
G|-1-----------------------|-1-------------------------|
D|-------------------------|---------------------------|
A--------------------------|------0--2-----------0-0-2-|
E|-----0-------------------|---0-----------------------|

e|-0-----0-2-----0-4-----2-0h2p0-----------0--------0--|
B|---2-------4-------0-----------4-2-0--2--------4-----|
G|-------------4-------1-------------------------------|
D|-----------------------------------------------------|
A|-0-------2----------------------------0-----2--------|
E|-----------------0--------------------------------0--|

e|-----4-2-0h2p0-----------|---4-2-0h2p0---------------|
B|---0-----------4-2--2--0-|--0----------4-2--0--2-2-4-|
G|-1-----------------------|-1-------------------------|
D|-------------------------|---------------------------|
A|-------------------------|------0--2-----------0-0-2-|
E|-----0-------------------|---0-----------------------|

e|-0-----0-2-----0-4-----2-0-----------0--------|
B|---2-------4-------0-------4-2-0--2------0--4-|
G|-------------4-------1------------------0-----|
D|---------------------------------------2------|
A|-0-------2------------------------0------2----|
E|-----------------0----------------------------|

Проигрыш:
e|---------------------------------|
B|---------------------------------|
G|-----0-------0-------0-------0---| x4 
D|-------2-------2---2---2---4---4-|
A|---2-------2-----3-------5-------|
E|-0-------0-----------------------|

1 куплет:
   Em              Am              D                  Em
e|---------0---------------0-------------2-3-2h3p2--------------------|
B|-------0---0-----------1---1---------3----------3-------------------|
G|-----0-------0-------2-------2-----2--------------2-----0---0---0---|
D|---2-----------2---2-----------2-0--------------------2---2---2---2-|
A|-----------------0--------------------------------------------------|
E|-0--------------------------------------------------0---------------|
   Я     вижу,     как    закат    стекла оконные     плавит

   Em              Am              F#              B7
e|---------0---------------0---------------2---------------2-------|
B|-------0---0-----------1---1-----------2---2-----------0---0-----|
G|-----0-------0-------2-------2-------3-------3-------2-------2---|
D|---2-----------2---2-----------2---4-----------4---1-----------1-|
A|-----------------0-------------------------------2---------------|
E|-0-------------------------------2-------------------------------|
   День прожит,  а ночь  оставит   тени  снов в углах

        Em              Am        D        Em 
	Мне не вернуть назад серую птицу печали,
        Em              Am              F#           B7
	Все в прошлом, так быстро тают замки в облаках.

Перед припевом:
   B7
e|---------2-------|
B|-------0---------|
G|-----------------|
D|---1-------------|
A|-2---------------|
E|-----------------|

Припев (боем):
         E          Am
        Там все живы, кто любил меня,
        C	                               B7
        Где восход, как праздник бесконечной жизни.
        E 	             Am
        Там нет счета рекам и морям,
        C                             B7
        Но по ним нельзя доплыть домой.

Проигрыш:
e|---------------------------------|
B|---------------------------------|
G|-----0-------0-------0-------0---| x4 
D|-------2-------2---2---2---4---4-|
A|---2-------2-----3-------5-------|
E|-0-------0-----------------------|

2 куплет (играется так же, как первый):
        Em              Am        D        Em 
        Вновь примирит все тьма, даже алмазы и пепел.
        Em              Am              F#    B7
        Друг равен врагу в итоге, а итог один...
        Em              Am        D        Em 
        Два солнца у меня на этом и прошлом свете,
        Em              Am              F#      B7
        Их вместе собой укроет горько-сладкий дым.

Припев (боем):
         E          Am
        Там все живы, кто любил меня,
        C	                               B7
        Где восход, как праздник бесконечной жизни.
        E 	             Am
        Там нет счета рекам и морям,
        C                             B7
        Но по ним нельзя доплыть домой.

B|------------------------|
G|-----0-2-4-2h4p2-0------|
D|------------------------|
        G                           D
        Возьми меня с собой, пурпурная река,
        G                        D	
	Прочь унеси меня с собой, закат!
        Am                         C
	Тоска о том, что было рвется через край
        Bm                           C
	Под крики серых птичьих стай...

Outro = Intro (постепенно затихая):
e|-----4-2-0h2p0-----------|---4-2-0h2p0---------------|
B|---0-----------4-2--2--0-|--0----------4-2--0--2-2-4-|
G|-1-----------------------|-1-------------------------|
D|-------------------------|---------------------------|
A--------------------------|------0--2-----------0-0-2-|
E|-----0-------------------|---0-----------------------|

e|-0-----0-2-----0-4-----2-0h2p0-----------0--------0--|
B|---2-------4-------0-----------4-2-0--2--------4-----|
G|-------------4-------1-------------------------------|
D|-----------------------------------------------------|
A|-0-------2----------------------------0-----2--------|
E|-----------------0--------------------------------0--|

e|-----4-2-0h2p0-----------|---4-2-0h2p0---------------|
B|---0-----------4-2--2--0-|--0----------4-2--0--2-2-4-|
G|-1-----------------------|-1-------------------------|
D|-------------------------|---------------------------|
A|-------------------------|------0--2-----------0-0-2-|
E|-----0-------------------|---0-----------------------|

e|-0-----0-2-----0-4-----2-0-----------0--------|
B|---2-------4-------0-------4-2-0--2------0--4-|
G|-------------4-------1------------------0-----|
D|---------------------------------------2------|
A|-0-------2------------------------0------2----|
E|-----------------0----------------------------|
 
 
Свернуть Распечатать

Видео