Ария - Паранойя, аккорды

Прокрутка
Тональность
Шрифт
100
Intro: Em

1|----4-4-4-4-2p0----4-4-4-2-0------------4-4-4-2-4-4/5--4p2-------------|
2|-5---------------------------4-4/5--2----------------------5p3-3p2-2p0-|

3|----------------4------------------------------------------------------|
1|----4-4-4-4-2p0-7--7-7-7-9-7---5/7--4---4-4-4-2-4-4/5--4p2-------------|
2|-5---------------------------------------------------------5p3-3p2p0---|
3|---------------------------------------------------------------------2-|

4|----------5------|    4|-----------------|
5|-5--5-7-7---7-7--| x3 5|-7--8-7-5-7-5----|
6|-----------------|    6|--------------7--|

4|----------5------|    4|-----------------|
5|-5--5-7-7---7-7--| x3 5|-7--8-7-5-7------|
6|-----------------|    6|-----------------|

     Em
Я работал как волк, но не выл на Луну
     Em
Каждый день я привык уходить на войну -
        D
Здесь воюют всегда
                           Em Riff 1
За кресты, за звезды и за воздух

Riff 1:
4|------------------|
5|-7--8-7-5-7-5-----|
6|--------------7-5-|

     Em
В этой пьяной стране есть для каждого кнут
     Em
Здесь поют о душе и в нее же плюют
        D
Как назло, как назло, как назло
                    Em 
Я понял слишком поздно...

Chorus:
B   Riff 2       C
Эта жизнь не для белых
B   Riff 3        C
Эта жизнь не для черных, нет
B   Riff 4       C            B
Эта жизнь без надежды на просвет! 

Riff 2:               Riff 3:                Riff 4:
1|-----------------| 1|------------------| 1|--------------------7-| 
2|-7-7-7--5-7-8-8--| 2|-7-7-7--5-7-8-8-8-| 2|-7-7-7--5-7-8-8-7-8---| 
3|-----------------| 3|------------------| 3|----------------------| 

  Em                B
  Где-то любовь светла
                  C#m
  Где-то вода чиста
                           D
  И не стучится в дверь беда
  Em                B
  Где-то покой и свет
                  C#m
  Но только нас там нет
                          D
  Нам не бывать там никогда

Intro: Em

1|----4-4-4-4-2p0----4-4-4-2-0------------4-4-4-2-4-4/5--4p2-------------|
2|-5---------------------------4-4/5--2----------------------5p3-3p2-2p0-|

3|----------------4------------------------------------------------------|
1|----4-4-4-4-2p0-7--7-7-7-9-7---5/7--4---4-4-4-2-4-4/5--4p2-------------|
2|-5---------------------------------------------------------5p3-3p2p0---|
3|---------------------------------------------------------------------2-|

4|----------5------|    4|-----------------|
5|-5--5-7-7---7-7--| x3 5|-7--8-7-5-7-5----|
6|-----------------|    6|--------------7--|

4|----------5------|    4|-----------------|
5|-5--5-7-7---7-7--| x3 5|-7--8-7-5-7------|
6|-----------------|    6|-----------------|

     Em
У подруги моей тоже собственный ад
     Em
Но там нет ничего: ни чертей ни огня
        D
Только страх темноты
                           Em Riff 1
И случайной встречи с незнакомцем

     Em
Он высок, он жесток, он полночный маньяк
     Em
У него сто имен на газетных листах
        D
Он везде, он везде, он везде
                    Em 
Как только сядет солнце...

Chorus:
B   Riff 2       C
Эта жизнь не для белых
B   Riff 3        C
Эта жизнь не для черных, нет
B   Riff 4       C            B
Эта жизнь без надежды на просвет! 

Riff 2:               Riff 3:                Riff 4:
1|-----------------| 1|------------------| 1|--------------------7-| 
2|-7-7-7--5-7-8-8--| 2|-7-7-7--5-7-8-8-8-| 2|-7-7-7--5-7-8-8-7-8---| 
3|-----------------| 3|------------------| 3|----------------------| 

Intro: Em

1|----4-4-4-4-2p0----4-4-4-2-0------------4-4-4-2-4-4/5--4p2-------------|
2|-5---------------------------4-4/5--2----------------------5p3-3p2-2p0-|

3|----------------4------------------------------------------------------|
1|----4-4-4-4-2p0-7--7-7-7-9-7---5/7--4---4-4-4-2-4-4/5--4p2-------------|
2|-5---------------------------------------------------------5p3-3p2p0---|
3|---------------------------------------------------------------------2-|

4|----------5------|    4|-----------------|
5|-5--5-7-7---7-7--| x3 5|-7--8-7-5-7-5----|
6|-----------------|    6|--------------7--|

4|----------5------|    4|-----------------|
5|-5--5-7-7---7-7--| x3 5|-7--8-7-5-7------|
6|-----------------|    6|-----------------|

     Em
Я вчера видел крыс - завтра грянет чума
     Em
И пойдет пировать, поджигая дома
        D
Всем раздаст по кресту
                           Em Riff 1
И на Страшный Суд отправит строем

     Em
А сегодня все пьют, чтоб не выть на Луну
     Em
Пир во время чумы, кто есть кто не пойму
        D
Я бегу чтобы жить
                     Em 
А вокруг ликует паранойя
 
 

Видео