Ария - Мечты, аккорды

Прокрутка
Тональность
Шрифт
100
      Am
Ты устала быть покорной,
      F    G      Am
Ты устала быть рабой.
      Am
Жить надеждой иллюзорной,
      F    G      Am
Отвечать на жест любой.

Припев:
E|----------------------------------------5-5---8-7-|
B|3-3-3-1---3-1---3-3-3-1---1---3-3-3-1---3-1---6-6-|
G|--------2---------------2-------------2-----------|

 Dm    Dm7     Asus4 Am
Барабанит по стеклам
 Dm           Dm7  Am
Дождь как будто живой
 Dm      Dm7 Asus4 Am
Ты опять одинока,
    F       F(V) Eaug E(VII)
Открой, открой,  открой.
 F                 C
Жизнь идет где-то за стеною,
   Dm              Am
А ты в плену пустоты,
F                   C(III)
О, как жаль, но всему виною

E|------5-5---8-7-|
B|6-6-------------|
G|----------------|

    Dm    Dm(V) Eaug E(VII)
Мечты, мечты, мечты.

      Am
Ты пыталась стать жестокой,
      F    G      Am
Стать прозрачной словно лед.
      Am
Недоступной и далекой,
      F    G      Am
И живущей без забот.

Припев:
E|----------------------------------------5-5---8-7-|
B|3-3-3-1---3-1---3-3-3-1---1---3-3-3-1---3-1---6-6-|
G|--------2---------------2-------------2-----------|

 Dm    Dm7     Asus4 Am
Барабанит по стеклам
 Dm           Dm7  Am
Дождь как будто живой
 Dm      Dm7 Asus4 Am
Ты опять одинока,
    F       F(V) Eaug E(VII)
Открой, открой,  открой.
 F                 C
Жизнь идет где-то за стеною,
   Dm              Am
А ты в плену пустоты,
F                   C(III)
О, как жаль, но всему виною

E|------5-5---8-7-|
B|6-6-------------|
G|----------------|

    Dm    Dm(V) Eaug E(VII)
Мечты, мечты, мечты.

Комментарий автора:

F(V) [x87565]
G [355433]
E(VII) [x79997]
Eaug [xx9998]
 
 
Свернуть Распечатать

Видео