Ария - Тореро, аккорды

Прокрутка
Тональность
Шрифт
100
E|------|-----0-|------|-------------|
B|----4-|----3--|----3-|-------------|
G|---6--|-------|----4-|-5-5-5-5–5–5-|
D|--0---|---1---|---0--|-5-5-5-5–5–5-|
A|-2----|--3----|--3---|-3-3-3-3–3–3-|
E|-3----|-4-----|-1----|-------------|

Then next and then this line with riff 1.
E|-------------|-----------|----------|-------------|
B|-------------|-----------|----------|-------------|
G|-------------|-----------|----------|-------------|
D|-------------|-----------|----------|-------------|
A|-3-5-6-3-5-6-|--5---5----|--3---3---|-------------|
E|-------------|-6-8-–6-8—-|-4-6-–4–6-|-3-4-3-4-3-6-|

Riff 1:
E|--------|-----|--------|----------|
B|--------|-----|--------|----------|
G|--------|-----|--------|----------|
D|-----–5-|-3---|-3------|----------|
A|-3-5-6—-|-–5-–|-–6-3---|--3-6-5-—-|
E|--------|--–6–|----4---|-4----6–3-|

Next line one guitar play with chords below tablature:
Riff 2:
G#5 D#5 D5 C5 G5
E|---------|-------------------------------|
B|----4-3--|-------------------------------|
G|-------5-|-(5)---------------------------|
D|-6-3-6---|-----------------5--5--5--5--5-|
A|---------|-----------------5--5--5--5--5-|
E|---------|-3-3-3-3-3-3-3-3-3-3-3-3-3-3-3-|

G#5 D#5 D5 C5 G5
E|--------–|----|
B|----4-3--|----|
G|-------5-|-12-|
D|-6-3-6---|----|
A|---------|----|
E|---------|----|

Then C5 }x32

I verse:
gtr. 1 – tablature
gtr. 2 – chords below tab

C5 8x B5 8x G#5 8x G5 8x
E|---|---|---|---|---------|
B|---|---|---|---|---------| 
G|-5-|-3–|---|---|---------| x2 
D|-5-|-3–|-6-|---|-5--5----|
A|---|---|-6-|-5-|-5--5----|
E|---|---|---|-5-|-3-3–3-3-|

gtr. 2 

Chorus:
Play riff 2 and step to next line:
C5 A#5 G#5 G5
E|---------|---|-------------|---------|---|-------------|
B|---------|---|-------------|---------|---|-------------|
G|–5-5-5-5–|–3–|-------------|---------|---|-------------|
D|–5-5-5-5–|–3–|-8-7-8-7-8-7-|-6-6-6-6-|-5-|-5-4-5-4-5-4-|
A|---------|---|-6-5-6-5-6-5-|-6-6-6-6-|-5-|-3-2-3-2-3-2-|
E|---------|---|-gtr.2-/–----|---------|---|-----gtr.2–/–|

E|-------------------------------------------------------------|
B|-------------------------------------------------------------|
G|-------------------------------------------------------------|
D|-3-3-3-3-3-3-3-3-3-3-3-3-3-3-6-6-6-6-6-6-6-6-6-6-6-6-6-6-6-6-|
A|-3-3-3-3-3-3-3-3-3-3-3-3-3-3-6-6-6-6-6-6-6-6-6-6-6-6-6-6-6-6-|
E|-1-1-1-1-1-1-1-1-1-1-1-1-1-1-4-4-4-4-4-4-4-4-4-4-4-4-4-4-4-4-|

16 x / 16 x /
E|-----------------|
B|-----------------|
G|-----------------|
D|-------------5–5-|
A|-3-2-–5–3–2–3–2—-|
E|---3-------------|

II verse as I verse

Chorus and 6 times C5

After that play riff 2 and goto solo.

Solo:
E|-------/18-20------13-----------|
B|-13~~-11~~-----–15-15-16--16-15-|
G|-----------------------------12-|
D|--------------------------------|
A|--------------------------------|
E|--------------------------------|

E|-----------------|
B|-----------------|
G|-12h13h15-13-12--|
D|-----------15–13-|
A|-----------------|
E|-----------------|

III Verse.

Chorus and outro.

Outro:
rit.
E|-------------------------------------------------------------|
B|-------------------------------------------------------------|
G|-0-4-0-4-0-5-0-5-0-7-0-7-0-8-0-8-0-10-0-10-0-11-0-11-0-12~~~-|
D|-------------------------------------------------------------|
A|-------------------------------------------------------------|
E|-------------------------------------------------------------|

C5
E|---------------------|
B|---------------------|
G|---------------------|
D|–10-10-10-10—-10—-10-|
A|–10-10-10-10—-10—-10-|
E|------—8–8–8–8—–8—–8-|

Комментарий автора:

Lyrics:
Эй, торреро, жизнь как миг.
Опять звучит трубы призывный зов.
Эй, торреро, ты или бык?
Качается чаша весов.
Бог хранит тебя, смерть щадит тебя.
Неба белый платок, кровь и желтый песок
Крик отчаянья, бык живая мишень.
Под восторженный вой ты играешь судьбой
Пусть не знает никто, что творится в душе.
 
 

Видео