Ария - Ночь в июле, аккорды

Прокрутка
Тональность
Шрифт
100
Intro:
 00:30
e|------------------0------------------------------------0------------|
B|----5-6-8-6-5-1-----1^3^1-----------5-6-8^10^8-6-5-1-----1^3^1------|
G|----------------2---------2-4-4-5-5------------------2---------2----|
D|----------------0------------------------------------0--------------|
A|----------------------------------3--------------3------------------|
E|-8------6---5---------------3--------------6-------5----------------|

e|----------------------0----------------------------------0----------|
B|----------5-6-8-6-5-1-----1-3-3-------5-6-8^10^8-6-5-1-----1^3^1----|
G|-4-5420-5---------------2-------4-2-5------------------2---------2--|
D|----------------------3--------------------------------0------------|
A|--------3---------5-----------------3--------------5----------------|
E|-3------------6---------------3--------------6----------------------|

e|--------------0-8--12-----|
B|----------------10-13-----|
G|-4-5420-5-0-2-------------|
D|--------------------------|
A|--------3-----3-----------|
E|-3------------------------|

Solo:
e|------------------------------------------------------------|
B|--17-18-20-18-17^18^17-13-----17-18-20-18-17^18^17-13----13-|
G|--------------------------14--------------------------14----|
D|------------------------------------------------------------|
A|------------------------------------------------------------|
E|------------------------------------------------------------|
 
 

Видео