Ария - Горящая стрела, аккорды

Прокрутка
Тональность
Шрифт
100
Intro:
Гит.1E----------------------------------------|
Гит.2B----------------------------------------|
     G----------------------------------------|
     D--Барабанное вступление ------------2---|
     A------------------------------------2---|
     E------------------------------------0---|

(0:01 - 0:20)

Рифф 1: 
Гит.1E|---------------------------------------------------|--------------------------------------------------|
Гит.2B|---------------------------------------------------|--------------------------------------------------|
     G|2--4--2-----------2-----4~~~~~---------------------|--------------------------------------------------|
     D|-(2)-----5--4--5--4--4--5-----4-----5~~~~~------2--|-(2)----2--4--5--4-----2-----4-----5~~~~~~--------|
     A|-(2)-----7-----------5--7-----------------------3--|-(3)----3--5--7--5--5--3-----5-----7~~~~~~-----3--|
     E|-(0)--0--------------------------------------------|-----3--------------7--------------------------5--|

Гит.1E|------------------------------------------------------------------------------------------------------|
Гит.2B|------------------------------------------------------------------------------------------------------|
     G|------------------------------------------------------------------------------------------------------|
     D|------------0--2--0-----------0-----2-----------4----(4)----------------------4--3--------3--2-----2--|
     A|-(3)-----3--2--3--2--2--3-----2-----3~~~~~------2----(2)----------------------2--1--------1--0-----2--|
     E|-------------(5)--5--5-----------3--5--------------------------------------------------------------0--|

(0:21 - 0:25)

Рифф 2:
Гит. E|------------------------------------------------------------------------------------------------------|
     B|------------------------------------------------------------------------------------------------------|
     G|------------------------------------------------------------------------------------------------------|
     D|-(2)--------------------2-----------------------2---(2)--------------------2-----------------------2--|
     A|-(2)--------------------2-----------------------2---(2)--------------------2-----------------------2--|
     E|-(0)--0--3-p0--2-p0-----0-----0--5-p0--6-p0-----0---(0)--0--3-p0--2-p0-----0-----0--5-p0--6-p0-----0--|

(0:25 - 0:45)

1 куплет:
ВокалЕ|------------------------------------------------------------------------------------------------------|
     B|------------------------------------------------------------------------------------------------------|
     G|------------------------2-----------------------------------------------------------------------------|
     D|---------2-----4-----5-----------5-----4---5-----4----------2-----2--2-----2--------------------------|
     A|------------------------------------------------------------------------------------------------------|
     E|---   Стре -  лой    горя  -    щей   по - езд  ре   -     жет   темно  -  ту,        ----------------|

Гит. E|------------------------------------------------------------------------------------------------------|
     B|------------------------------------------------------------------------------------------------------|
     G|------------------------------------------------------------------------------------------------------|
     D|-(2)--------------------2-----------------------2---(2)--------------------2-----------------------2--|
     A|-(2)--------------------2-----------------------2---(2)--------------------2-----------------------2--|
     E|-(0)--0--3-p0--2-p0-----0-----0--5-p0--6-p0-----0---(0)--0--3-p0--2-p0-----0-----0--5-p0--6-p0-----0--|

ВокалЕ|------------------------------------------------------------------------------------------------------|
     B|------------------------------------------------------------------------------------------------------|
     G|------------------------2-----------------------------------------------------------------------------|
     D|---------2-----4---5------------5-----4---5-----4--------------2--------------------------------------|
     A|------------------------------------------------------------------------------------------------------|
     E|---     Пос - лушный   не   -   из - вестным   си      -      лам         ----------------------------|
     
Гит. E|------------------------------------------------------------------------------------------------------|
     B|------------------------------------------------------------------------------------------------------|
     G|------------------------------------------------------------------------------------------------------|
     D|-(2)--------------------2-----------------------4----(4)-------2-----------------------------------2--|
     A|-(2)--------------------2-----------------------4----(4)-------2-----------------2--0-----------2--2--|
     E|-(0)--0--3-p0--2-p0-----0-----0--5-p0--6-p0-----2----(2)-------0-----------------------3--2--3-----0--|
                И   стук ко - лес    здесь  за - ме -  ня    -    ет  сердца  стук  

Гит. E|------------------------------------------------------------------------------------------------------|
     B|------------------------------------------------------------------------------------------------------|
     G|------------------------------------------------------------------------------------------------------|
     D|-(2)--------------------2-----------------------2---(2)--------------------2-----------------------2--|
     A|-(2)--------------------2-----------------------2---(2)--------------------2-----------------------2--|
     E|-(0)--0--3-p0--2-p0-----0-----0--5-p0--6-p0-----0---(0)--0--3-p0--2-p0-----0-----0--5-p0--6-p0-----0--|
                И   кровь от ско   -   рос - ти  за -  сты     -      ла.

Гит. E|------------------------------------------------------------------------------------------------------|
     B|------------------------------------------------------------------------------------------------------|
     G|------------------------------------------------------------------------------------------------------|
     D|-(2)--------------------2-----------------------4----(4)-------2--------------------------2--4--5--4--|
     A|-(2)--------------------2-----------------------4----(4)-------2--------------0-h2--3--5-----------2--|
     E|-(0)--0--3-p0--2-p0-----0-----0--5-p0--6-p0-----2----(2)-------0--------------------------------------|

(0:45 - 0:55)

Пре-Припев:
ВокалЕ|------------------------------------------------------------------------------------------------------|
     B|------------------------------------------------------------------------------------------------------|
     G|----------2----2---2----2-----------------------------------------------------------------------------|
     D|---------------------------------5-----4---5----4--------------------------2--------------------------|
     A|------------------------------------------------------------------------------------------------------|
     E|---     Дви -  женье  ста   -   ло    смыслом   жиииииииииизни      -      ни,     -------------------|
      
Гит. E|------------------------------------------------------------------------------------------------------|
     B|------------------------------------------------------------------------------------------------------|
     G|------------------------------------------------------------------------------------------------------|
     D|-(4)--------------------------------------------5----(5)-------------------------------------------2--|
     A|-(2)--------------------------------------------3----(3)-------------------------------------------0--|
     E|------------------------------------------------------------------------------------------------------|
 
ВокалЕ|------------------------------------------------------------------------------------------------------|
     B|------------------------------------------------------------------------------------------------------|
     G|----------2----2----2---2-----------------------------------------------------------------------------|
     D|---------------------------------5------4--5-----4----------------------------------------------------|
     A|------------------------------------------------------------------------------------------------------|
     E|---      Что   дальше  бу   -   дет   все рав - но!     ----------------------------------------------|
      |                                                   |                                                  |
Гит. E|------------------------------------------------------------------------------------------------------|
     B|------------------------------------------------------------------------------------------------------|
     G|------------------------------------------------------------------------------------------------------|
     D|-(2)--------------------------------------------4----(4)-------------------------------------------9--|
     A|-(0)--------------------------------------------2----(2)----------------------2-/3--3--3--3-/5--5--7--|
     E|------------------------------------------------------------------------------------------------------|

(0:55 - 1:20)

Припев:
ВокалЕ|------------------------------------------------------------------------------------------------------|
     B|------------------------------------------------------------------------------------------------------|
     G|------------------------------------------------------------------------------------------------------|
     D|-------------5-----------4----------------------------------------------------------------------------|
     A|-------------------------------------5----------3--------------------5-----5--------5-----5--0----2---|
     E|---        Дро    -     жит         зем   -    ля,                 дро -  жит      го -   рячий  воз- |

Гит. E|------------------------------------------------------------------------------------------------------|
     B|------------------------------------------------------------------------------------------------------|
     G|------------------------------------------------------------------5-----------------------7-----------|
     D|--(9)--------5-----------4----------------------5----(5)----2-/5-----------7--------4-/7-----------9--|
     A|-(7)---------------------------------5----------3----(3)-3-----------------5-----5-----------------7--|
     E|------------------------------------------------------------------------------------------------------|
 
ВокалЕ|------------------------------------------------------------------------------------------------------|
     B|------------------------------------------------------------------------------------------------------|
     G|------------------------------------------------------------------------------------------------------|
     D|-------------5-----------4-------------------------------------------------------------------2-----2--|
     A|-------------------------------------5----------3--------------------5-----5--------5-----5-----------|
     E|  - дух,   Стре     -   ла          ле    -    тит                   ту - да,     где    рухнул   мост|

Гит. E|------------------------------------------------------------------------------------------------------|
     B|------------------------------------------------------------------------------------------------------|
     G|------------------------------------------------------------------5-----------------------7-----------|
     D|--(9)--------5-----------4----------------------5----(5)----2-/5-----------7--------4-/7-----9-----9--|
     A|-(7)---------------------------------5----------3----(3)-3-----------------5-----5-----------7-----7--|
     E|------------------------------------------------------------------------------------------------------|

(1:20 - 1:25) Повторяется Рифф 2
(1:25 - 1:44) 2 Куплет
(1:45 - 1:54) Пре-Припев
(1:55 - 2:19) Припев

(2:19 - 2:29)
Рифф 3:
ГИТ. E|----------------------------------------------------------------------------------------------------|
     B|----------------------------------------------------------------------------------------------------|
     G|----------------------------------------------------------------------------------------------------|
     D|----------------------------------------------------------------------------------------------------|
     A|--------------------------------------------------------2-------------------------------------2-----|
     E|--3--2--0--3--2--0--3--2--0--3--2--0--3--2--0-------3--2--0--3--2--0--3--2--0--3--2--0--3--2--0-----|

(2:29 - 3:08)

Сщдщ: (Кое где не смог подобрать:-(
        F#5                                                D5                      E5
Гит. E|----------------------------------------------------------------------------------------|
     B|----------------------10--7--10--7------------------------------------------------------|
     G|-9bend11-----------9---------------9--6--9----------6-----------------------------------|
     D|--------------------------------------------7bend9------7--4--7--6----------------------|
     A|-------------------------------------------------------------------7--4-----------------|
     E|----------------------------------------------------------------------------------------|

        F#5                                                D5                      B5
Гит. E|------------------------------------------------------------------------------12----10--|
     B|----------------------------------------------------9----9b10rel9-----------------------|
     G|----------------------------------------7-----9-----------------------------------------|
     D|--4---4-7p4---4-7p4-...-------------------------9---------------------------------------|
     A|----7-------7---------------------------------------------------------------------------|
     E|----------------------------------------------------------------------------------------|

        F#5                                                D5                      E5
Гит. E|-9-12p9-12p9-12p9-12p9-...--------------------------------------------------------------|
     B|----------------------------------------------------------------------------------------|
     G|----------------------------------------------------------------------------------------|
     D|----------------------------------------------------------------------------------------|
     A|----------------------------------------------------------------------------------------|
     E|----------------------------------------------------------------------------------------|

        F#5                                                D5                      B5
Гит. E|----21----------------19----------------17------------------------------------------------|
     B|-19----------------17-------------14-------...--------------------------------------------|
     G|------------------------------------------------------------------------------------------|
     D|------------------------------------------------------------------------------------------|
     A|------------------------------------------------------------------------------------------|
     E|------------------------------------------------------------------------------------------|
 
Гит. E|----------------------------------------------------------------------------------------------------|
     B|------------------------------------------------------------------------------7------7b8r7b8r7~~~~--|
     G|--7bend9~~~~----------7b9release7bend9~~~~~~----------5--5--7--7-----9--9---------------------------|
     D|----------------------------------------------------------------------------------------------------|
     A|----------------------------------------------------------------------------------------------------|
     E|----------------------------------------------------------------------------------------------------|
     
Гит.2E|----------------------------------------------------------------------------------------------------|
     B|----------------------------------------------------------------------------------------------------|
     G|----------------------------------------------------------------------------------------------------|
     D|-(9)----7-----9--------5--------4-----5--------5----(5)------------------7-----------------------9--|
     A|-(7)----5-----7--------7--------5-----7--------3----(3)------------------5-----------------------7--|
     E|----------------------------------------------------------------------------------------------------|
 
Гит. E|----------------------------------------------------------------------------------------------------|
     B|----7b8r7-p5----------------7b8r7-p5-----------5----(5)~~~~--------5--7--8~~~~----7~~~~~~-----------|
     G|--------------7--4--------------------7--4-----5----(5)~~~~-----------------------------------------|
     D|--------------------------------5-----------------------5-------------------------------------------|
     A|-----------------------------------7----------------------------------------------------------------|
     E|----------------------------------------------------------------------------------------------------|
     
Гит.2E|----------------------------------------------------------------------------------------------------|
     B|----------------------------------------------------------------------------------------------------|
     G|----------------------------------------------------------------------------------------------------|
     D|-(9)----7-----9--------5--------4-----5--------5----(5)------------------------------------------9--|
     A|-(7)----5-----7--------7--------5-----7--------3----(3)------------------7-----------------------7--|
     E|-------------------------------------------------------------------------5--------------------------|
 
Гит. E|----------------------------------------------------------------------------------------------------|
     B|--8p5---5-8p5---5-8p5---5-8p5---5-8p5---5-8p5---5-8p5---5-8p5------10p8---10p8---...----------------|
     G|------7-------7-------7-------7-------7-------7-------7-----------------9------9--------------------|
     D|----------------------------------------------------------------------------------------------------|
     A|----------------------------------------------------------------------------------------------------|
     E|----------------------------------------------------------------------------------------------------|
      
Гит.2E|----------------------------------------------------------------------------------------------------|
     B|----------------------------------------------------------------------------------------------------|
     G|----------------------------------------------------------------------------------------------------|
     D|-(9)----7-----9--------5--------4-----5--------5----(5)------------------7-----------------------5--|
     A|-(7)----5-----7--------7--------5-----7--------3----(3)------------------5-----------------------3--|
     E|----------------------------------------------------------------------------------------------------|

Затем:
(3:09 - 3:18) Пре-Припев
(3:19 - 3:43) Припев 2 (Здесь сдвиг на пол-тона между этим и предыдущим припевом)
(3:43 - 4:03) Повторяется Рифф 1

(4:03 - 4:09)

Outro:
Гит. E|-----------------------------------------------------------------------------------------|
     B|-----------------------------------------------------------------------------------------|
     G|-----------------------------------------------------------------------------------------|
     D|--4--3--------3--2-----------4--3--------3--2--------------------------------------------|
     A|--2--1--------1--0-----------2--1--------1--0--------------------------------------2-----|
     E|-----------------------------------------3--2--0--3--2--0--3--2--0--3--2--0--3--2--0-----|
 
 

Видео