Ария - С кем ты, аккорды

Прокрутка
Тональность
Шрифт
100
Intro: (0:01 - 0:24)

Riff 1:
Gtr.1
E|-------------------------------------------------|
B|-------------------------- here -----------------|
G|------------------------ drums оnlу -------------|
D|-------------------------------------------------|
A|-----------------------------------------8-----8-|
E|-----------------------------------------6-----6-|

Gtr.1
E|-------------------------------------------------|
B|-------------------------------------------------|
G|-------------------------------------------------|
D|-----------------------------------------------8-|
A|-(8)-------------------8-----------------------6-|
E|-(6)-8--8--8--8--8--8--6-----8--8--8--8--8--8----|

E|------------------------------------------------|
B|------------------------------------------------|
G|------------------------------------------------|
D|(8)-------10----------8-------------------------|
A|(6)-------8-----------6-----------------6--5--6-|
E|----------------------------8--8--8--8----------|

Gtr.1
E|-------------------------------------------------|
B|-------------------------------------------------|
G|-------------------------------------------------|
D|-------------------------------------------------|
A|-(6)-------------6--5--6-----------------------6-|
E|-----8--8--8--8--------------8--8--8--8--8--8----|

E|------------------------------------------------|
B|------------------------------------------------|
G|------------------------------------------------|
D|------------------------------------------------|
A|(6)-5-----8-----6--5--6--5--------5-----8-----8-|
E|-------8--------------------8-----3-----6-----6-|

Gtr.1
E|-------------------------------------------------|
B|-------------------------------------------------|
G|-------------------------------------------------|
D|-----------------------------------------------8-|
A|-(8)-------------------8-----------------------6-|
E|-(6)-8--8--8--8--8--8--6-----8--8--8--8--8--8----|

E|------------------------------------------------|
B|------------------------------------------------|
G|------------------------------------------------|
D|(8)-------10----------8-------------------------|
A|(6)-------8-----------6-----------------6--5--6-|
E|----------------------------8--8--8--8----------|

Gtr.1
E|-------------------------------------------------|
B|-------------------------------------------------|
G|-------------------------------------------------|
D|-------------------------------------------------|
A|-(6)-------------6--5--6-----------------------6-|
E|-----8--8--8--8--------------8--8--8--8--8--8----|

E|------------------------------------|
B|------------------------------------|
G|------------------------------------|
D|------------------------------------|
A|(6)-5-----8-----6--5--6--5--------5-|
E|-------8--------------------8-----3-|

Gtr.1
E|----- 3/4 measure -------------------|
B|-------------------------------------|
G|-------------------------------------|
D|-----------------------------8-------|
A|-(5)-------------------------6-----6-|
E|-(3)-------------------------------4-|

Verse 1: (0:24 - 0:44)

Vоiсе
E|---------------------------------------------------|
B|-------4--4-4---4--4-------------------------------|
G|------------------------3------3---3----3---3----5-|
D|---------------------------------------------------|
A|---------------------------------------------------|
E|---  Razdelilsya ves? mir   na 'о - ni' i 'my'    -|

Gtr.1
E|-------------------------------------------------|
B|-------------------------------------------------|
G|-------------------------------------------------|
D|-----------------------------------------------5-|
A|-(6)-------------------8-----------5-----------3-|
E|-(4)-------------------6-----------3-------------|

E|------------------------------------------------|
B|------------------------------------------------|
G|------------------------------------------------|
D|(5)-------------------3-/5--------------8-------|
A|(3)-------------------1-/3--------------6-----6-|
E|----------------------------------------------4-|

Gtr.2
E|------------------------------------------------|
B|------------------------------------------------|
G|-------5--5--8--8--5-----------5--5--8--8--7----|
D|----------------------------------------------6-|
A|------------------------------------------------|
E|------------------------------------------------|

Vоiсе
E|----------------------------------------------------|
B|-------4---4-4-4---4--------------------------------|
G|------------------------3----3----3------3--3----5--|
D|----------------------------------------------------|
A|----------------------------------------------------|
E|---- Byut nаватоm serdtza   i  bur - lyat u - my   -|

Gtr.1
E|-------------------------------------------------|
B|-------------------------------------------------|
G|-------------------------------------------------|
D|-----------------------------------------------5-|
A|-(6)-------------------8-----------5-----------3-|
E|-(4)-------------------6-----------3-------------|

E|------------------------------------------------|
B|------------------------------------------------|
G|------------------------------------------------|
D|(5)-------------------3-/5--------------8-------|
A|(3)-------------------1-/3--------------6-----6-|
E|----------------------------------------------4-|

Gtr.2
E|------------------------------------------------|
B|------------------------------------------------|
G|------------------------------------------------|
D|-(6)--------------------------------------------|
A|------------------------------------------------|
E|------------------------------------------------|

E|------------------------------------------------|
B|------------------------------------------------|
G|-------5-5-5-8--8--------------5--5--8--8--7----|
D|----------------------------------------------6-|
A|------------------------------------------------|
E|------------------------------------------------|

Vоiсе
E|-----------------------------------------------------|
B|-------4--4--4-----4-4--6----6----6-----6----6-------|
G|------------------------------------------------5----|
D|-----------------------------------------------------|
A|-----------------------------------------------------|
E|--- Chey metall tyazheley  i  ver - ney роsту?      -|

Gtr.1
E|-------------------------------------------------|
B|-------------------------------------------------|
G|-------------------------------------------------|
D|-----------------------------------------------5-|
A|-(6)-------------------8-----------5-----------3-|
E|-(4)-------------------6-----------3-------------|

E|------------------------------------------------|
B|------------------------------------------------|
G|------------------------------------------------|
D|(5)-------------------3-/5--------------8-------|
A|(3)-------------------1-/3--------------6-----6-|
E|----------------------------------------------4-|

Gtr.2
E|------------------------------------------------|
B|------------------------------------------------|
G|------------------------------------------------|
D|-(6)--------------------------------------------|
A|------------------------------------------------|
E|------------------------------------------------|

E|------------------------------------------------|
B|------------------------------------------------|
G|-------5-5-5-8--8--------------5--5--8--8--7----|
D|----------------------------------------------6-|
A|------------------------------------------------|
E|------------------------------------------------|

Vоiсе
E|----------------------------------------------------|
B|-------4--4-4---4--4--------------------------------|
G|------------------------3------3--3--3-------3----5-|
D|----------------------------------------------------|
A|----------------------------------------------------|
E|---  Razdelilsya ves? mir,   отvеснау: 's kem ty?' -|

Gtr.1
E|--------------------------------------------------|
B|--------------------------------------------------|
G|--------------------------------------------------|
D|--------------------------------------------------|
A|-(6)-------------------8-----------------------10-|
E|-(4)-------------------6-----------------------8--|

E|-------------------------------------------|
B|-------------------------------------------|
G|-------------------------------------------|
D|-------------------------------------------|
A|(10)---------------------------------------|
E|(8)-------------------8--------------6--5--|

CHORUS:(0:44 - 1:10)
                                S kem ty?
Gtr.1
E|----------------------------------|--------------------------|
B|----------------------------------|--------------------------|
G|----------------------------------|--------------------------|
D|----------------------3-----------|--------------------------|
A|------5---3---6---5-------5-------|--------------------------|
E|--3---------------------------6---|-(6)------------------6-5-|

Gtr.1
E|----------------------------------|--------------------------|
B|----------------------------------|--------------------------|
G|----------------------------------|--------------------------|
D|----------------------3-----------|--------------------------|
A|------5---3---6---5-------5-------|--------------------------|
E|--3-------------------------6-----|-(6)------------------6-5-|
                               S kem ty?

Gtr.1
E|----------------------------------|--------------------------|
B|----------------------------------|--------------------------|
G|----------------------------------|--------------------------|
D|----------------------3-----------|--------------------------|
A|------5---3---6---5-------5-------|--------------------------|
E|--3---------------------------6---|-(6)------------------6-5-|
                               S kem ty?

Gtr.1
E|----------------------------------|-----|
B|----------------------------------|-----|
G|--------------------------------8-|-(8)-|
D|----------------------3---------8-|-(8)-|
A|------5---3---6---5-------5-----6-|-(6)-|
E|--3---------------------------6---|-----|
           S kem ty?     S kem ty?

Gtr.1
E|----------------------------------|----|
B|----------------------------------|----|
G|--7-------------------------------|----|
D|--7-------------------------------|----|
A|--5-------------------------------|----|
E|----------------------------------|--3-|

(1:10 - 1:33)

Riff 1*: (Riff 1 without the last 3/4-measure):
Gtr.1
E|-------------------------------------------------|
B|-------------------------------------------------|
G|-------------------------------------------------|
D|-------------------------------------------------|
A|-----------------------------------------8-----8-|
E|-----------------------------------------6-----6-|

Gtr.1
E|-------------------------------------------------|
B|-------------------------------------------------|
G|-------------------------------------------------|
D|-----------------------------------------------8-|
A|-(8)-------------------8-----------------------6-|
E|-(6)-8--8--8--8--8--8--6-----8--8--8--8--8--8----|

E|------------------------------------------------|
B|------------------------------------------------|
G|------------------------------------------------|
D|(8)-------10----------8-------------------------|
A|(6)-------8-----------6-----------------6--5--6-|
E|----------------------------8--8--8--8----------|

Gtr.1
E|-------------------------------------------------|
B|-------------------------------------------------|
G|-------------------------------------------------|
D|-------------------------------------------------|
A|-(6)-------------6--5--6-----------------------6-|
E|-----8--8--8--8--------------8--8--8--8--8--8----|

E|------------------------------------------------|
B|------------------------------------------------|
G|------------------------------------------------|
D|------------------------------------------------|
A|(6)-5-----8-----6--5--6--5--------5-----8-----8-|
E|-------8--------------------8-----3-----6-----6-|

Gtr.1
E|-------------------------------------------------|
B|-------------------------------------------------|
G|-------------------------------------------------|
D|-----------------------------------------------8-|
A|-(8)-------------------8-----------------------6-|
E|-(6)-8--8--8--8--8--8--6-----8--8--8--8--8--8----|

E|------------------------------------------------|
B|------------------------------------------------|
G|------------------------------------------------|
D|(8)-------10----------8-------------------------|
A|(6)-------8-----------6-----------------6--5--6-|
E|----------------------------8--8--8--8----------|

Gtr.1
E|-------------------------------------------------|
B|-------------------------------------------------|
G|-------------------------------------------------|
D|-------------------------------------------------|
A|-(6)-------------6--5--6-----------------------6-|
E|-----8--8--8--8--------------8--8--8--8--8--8----|

E|------------------------------------------------|
B|------------------------------------------------|
G|------------------------------------------------|
D|----------------------------------------8-------|
A|(6)-5-----8-----6--5--6--5--------5-----6-----6-|
E|-------8--------------------8-----3-----------4-|

(1:33 - 1:52) Verse 2 = Verse 1

(1:53 - 2:18) Chorus

Bass Solo: (2:18 - 2:48)
Gtr.1
E|-------------------------------------------------|
B|-------------------------------------------------|
G|-------------------------------------------------|
D|-------------------------------------------------|
A|-----------------------------------------------7-|
E|-----------------------------------------------5-|

Bass
G|-------------------------------------------------|
D|-------------------------------------------------|
A|-----------------------------------------------0-|
E|-------------------------------------------------|

Gtr.1
E||------------------------------------------------|
B||------------------------------------------------|
G||------------------------------------------------|
D||----------------------5-----------7-------------|
A||-(7)------------------3-----------5-----------7-|
E||-(5)------------------------------------------5-|

E|------------------------------------------------|
B|------------------------------------------------|
G|------------------------------------------------|
D|----------------------5-----------7-------------|
A|(7)-------------------3-----------5-----------7-|
E|(5)-------------------------------------------5-|

Bass
G||-----------------------------------------------|
D||----------0--2--5--2-------------/7--5---------|
A||(0)-2--3--------------3-----------------7----0-|
E||-----------------------------------------------|

G|------------------------------------------------|
D|----------0--2--5--2-------------/7--5----------|
A|-(0)-2--3--------------3-----------------7----0-|
E|------------------------------------------------|

Gtr.1
E|-------------------------------------------------|
B|-------------------------------------------------|
G|-------------------------------------------------|
D|-----------------------5-----------7-----------9-|
A|--(7)------------------3-----------5-----------7-|
E|--(5)--------------------------------------------|

E|------------------------------------------------||
B|------------------------------------------------||
G|------------------------------------------------||
D|(9)---------------------------------------------||
A|(7)-------------------------------------------7-||
E|----------------------------------------------5-||

Bass
G|------------------------------------|
D|-----------0--2--5--2------/7--5----|
A|-(0)-2--3--------------3----------7-|
E|------------------------------------|

G|-0h4-0----0h4-0----0h4-0----0h4-0----0h4-0-------||
D|--------2--------2--------2--------2--------2----||
A|-----------------------------------------------0-||
E|-------------------------------------------------||

Bass
G|--------4--------4--------4----------------|--- 6/4 measure -|
D|-----6--------6--------6-------------------|-----------------|
A|--7--------7--------7----------------------|---???-----------|
E|-------------------------------------------|-----------------|

Solo 2: (2:48 - 3:28)
Gtr.1
E|-------------------------------------------------|
B|-------------------------------------------------|
G|-------------------------------------------------|
D|-----------------------2-------------------------|
A|-(0)----2-----3-----0----------------------------|
E|-----------------------------------------------1-|

E|------------------------------------------------|
B|------------------------------------------------|
G|------------------------------------------------|
D|------------------------------------------------|
A|-------------0--------3--------2-----0-----2----|
E|(1)----3--------1--1--------------------------3-|

Bass
G|--------------------------------------------------|---------|
D|--------------------------------------------------|---------|
A|-(0)----------------------------------2--3--0-----|---------|
E|-----------------------------------------------1--|(1)----3-|

Gtr.1
E|-------------------------------------------------|
B|-------------------------------------------------|
G|-------------------------------------------------|
D|-------------------------------------------------|
A|--------0-----2--------5-------------------------|
E|-(3)----------------3--------------------------0-|

E|------------------------------------------------|
B|------------------------------------------------|
G|------------------------------------------------|
D|------------------------------------------------|
A|----------------------5--------3-----2-----3--0-|
E|(0)----1-----3--0--0----------------------------|

Bass
G|--------------------------------------------------|---------|
D|--------------------------------------------------|---------|
A|--------------------------------------0--2--------|-------0-|
E|-(3)----------------------------------------3--0--|(0)------|

Gtr.1
E|-------------------------------------------------|
B|-------------------------------------------------|
G|-------------------------------------------------|
D|-----------------------2-------------------------|
A|-(0)----2-----3-----0----------------------------|
E|-----------------------------------------------1-|

E|------------------------------------------------|
B|------------------------------------------------|
G|------------------------------------------------|
D|------------------------------------------------|
A|-------------0--------3--------2-----0-----2----|
E|(1)----3--------1--1--------------------------3-|

Bass
G|--------------------------------------------------|---------|
D|--------------------------------------------------|---------|
A|-(0)----------------------------------2--3--0-----|---------|
E|-----------------------------------------------1--|(1)----3-|

Gtr.1
E|-------------------------------------------------|
B|-------------------------------------------------|
G|-------------------------------------------------|
D|-------------------------------------------------|
A|--------0-----2--------5-------------------------|
E|-(3)----------------3--------------------------0-|


E|------------------------------------------------|
B|------------------------------------------------|
G|------------------------------------------------|
D|------------------------------------------------|
A|----------------------5--------3-----2-----3--3-|
E|(0)----1-----3--0--0----------------------------|

Bass
G|--------------------------------------------------|---------|
D|--------------------------------------------------|---------|
A|--------------------------------------0--2--------|-------3-|
E|-(3)----------------------------------------3--0--|(0)------|

Gtr.1
E|--------------------------------------------------|
B|--------------------------------------------------|
G|--------------------------------------------------|
D|-----------------------5--------------------------|
A|-(3)----5-----6-----3-----------------------------|
E|-----------------------------------------------4--|

E|------------------------------------------------|
B|------------------------------------------------|
G|------------------------------------------------|
D|------------------------------------------------|
A|-------------3--------6--------5-----3-----5----|
E|(4)----6--------4--4--------------------------6-|

Bass
G|--------------------------------------------------|---------|
D|--------------------------------------------------|---------|
A|-(3)----------------------------------5--6--3-----|---------|
E|-----------------------------------------------4--|(4)----6-|

Gtr.1
E|-------------------------------------------------|
B|-------------------------------------------------|
G|-------------------------------------------------|
D|-------------------------------------------------|
A|--------------5--------8-------------------------|
E|-(6)----8-----------6--------------------------3-|

E|-------------------------------------------------|
B|-------------------------------------------------|
G|-------------------------------------------------|
D|----------------------3--------------------------|
A|-------------------------------6-----5-----6--3--|
E|(3)----4-----6--3--3-----------------------------|

Bass
G|--------------------------------------------------|---------|
D|--------------------------------------------------|---------|
A|--------------------------------------3--5--------|-------3-|
E|-(6)----------------------------------------6--3--|(3)------|

Gtr.1
E|-------------------------------------------------|
B|-------------------------------------------------|
G|-------------------------------------------------|
D|-----------------------5-------------------------|
A|-(3)----5-----6-----3----------------------------|
E|-----------------------------------------------4-|

E|-------------------------------------------------|
B|-------------------------------------------------|
G|-------------------------------------------------|
D|-------------------------------------------------|
A|-------------3--------6--------5-----3-----5-----|
E|(4)----6--------4--4--------------------------6--|

Bass
G|--------------------------|---------------|
D|--------------------------|---------------|
A|-(3)----------5--6--3-----|---------------|
E|-----------------------4--|(4)----------6-|

Gtr.1
E|-------------------------------------------------|
B|-------------------------------------------------|
G|-------------------------------------------------|
D|-------------------------------------------------|
A|--------------5--------8-------------------------|
E|-(6)----8-----------6--------------------------3-|

E|------------------------------------------------|
B|------------------------------------------------|
G|------------------------------------------------|
D|----------------------3-----------------8-------|
A|-------------------------------6-----5--6-----6-|
E|(3)----4-----6--3--3--------------------------4-|

Bass
G|----------------------------------------------|-----------|
D|----------------------------------------------|-----------|
A|----------------------------------3--5--------|-----6-----|
E|-(6)------------------------------------6--3--|(3)------4-|

(3:28 - 3:49) Verse 3 = Verse 1 

(3:49 - 4:14) Chorus

Riff 1*: (4:14 - 4:37)
Gtr.1
E|-------------------------------------------------|
B|-------------------------------------------------|
G|-------------------------------------------------|
D|-------------------------------------------------|
A|-----------------------------------------8-----8-|
E|-----------------------------------------6-----6-|

Gtr.1
E|-------------------------------------------------|
B|-------------------------------------------------|
G|-------------------------------------------------|
D|-----------------------------------------------8-|
A|-(8)-------------------8-----------------------6-|
E|-(6)-8--8--8--8--8--8--6-----8--8--8--8--8--8----|

E|------------------------------------------------|
B|------------------------------------------------|
G|------------------------------------------------|
D|(8)-------10----------8-------------------------|
A|(6)-------8-----------6-----------------6--5--6-|
E|----------------------------8--8--8--8----------|

Gtr.1
E|-------------------------------------------------|
B|-------------------------------------------------|
G|-------------------------------------------------|
D|-------------------------------------------------|
A|-(6)-------------6--5--6-----------------------6-|
E|-----8--8--8--8--------------8--8--8--8--8--8----|

E|------------------------------------------------|
B|------------------------------------------------|
G|------------------------------------------------|
D|------------------------------------------------|
A|(6)-5-----8-----6--5--6--5--------5-----8-----8-|
E|-------8--------------------8-----3-----6-----6-|

Gtr.1
E|-------------------------------------------------|
B|-------------------------------------------------|
G|-------------------------------------------------|
D|-----------------------------------------------8-|
A|-(8)-------------------8-----------------------6-|
E|-(6)-8--8--8--8--8--8--6-----8--8--8--8--8--8----|

E|------------------------------------------------|
B|------------------------------------------------|
G|------------------------------------------------|
D|(8)-------10----------8-------------------------|
A|(6)-------8-----------6-----------------6--5--6-|
E|----------------------------8--8--8--8----------|

Gtr.1
E|-------------------------------------------------|
B|-------------------------------------------------|
G|-------------------------------------------------|
D|-------------------------------------------------|
A|-(6)-------------6--5--6-----------------------6-|
E|-----8--8--8--8--------------8--8--8--8--8--8----|

E|-------------------------------------------------|
B|-------------------------------------------------|
G|-------------------------------------------------|
D|-------------------------------------------------|
A|(6)-5-----8-----6--5--6--5--------5-----8-----10-|
E|-------8--------------------8-----3-----6-----8--|

Комментарий автора:

Теmро: 94 bpm

Текст:

Разделился весь мир на они и мы
Бьют набатом сердца и бурлят умы
Чей метал тяжелей и верней посты
Разделился весь мир, отвечай: - 'С кем ты?'

С кем ты?

Кто скажи мне кричал: 'Покорись Восток'?
Как слепой автомат нажимал на курок
Кто, надев балахон, зажигал кресты?
Разделился весь мир, отвечай: - 'С кем ты?'

С кем ты?

Не остался в живых, если вдруг гроза
Там не стой как чужой, опустив глаза
Только действиям счет отдавал пустым
Разделился весь мир, отвечай: - 'С кем ты?'

С кем ты?
 
 
Свернуть Распечатать

Видео