Ария - Я не сошел с ума, аккорды

Прокрутка
Тональность
Шрифт
100
INTRO:
РИФФ 1:
Здесь виола аранжирована под гитару
Виола
E|--C#m------------------------|--A----------------------------|
B|-------------9---------------|-----------9-------------------|
G|-6---------------9---8-----9-|-6-------------9---8---------9-|
D|-----------------------------|-------------------------------|
A|-----------------------------|-------------------------------|
E|-----------------------------|-------------------------------|

Виола
E|--Bbm------------------------|-F#m------G#m--------A---------|
B|-------------6---------------|-------------------------------|
G|-8---6-----------6---5-----6-|-8-----6--8------6---8-------6-|
D|-----------------------------|-------------------------------|
A|-----------------------------|-------------------------------|
E|-----------------------------|-------------------------------|

Виола
E|--C#m------------------------|--A----------------------------|
B|-------------9---------------|---------9---------------------|
G|-6---------------9---8-----9-|-6-----------9---8-----------9-|
D|-----------------------------|-------------------------------|
A|-----------------------------|-------------------------------|
E|-----------------------------|-------------------------------|

Виола
E|--Bbm------------------------|-F#m---------G#m---------A-----|
B|-------------6---------------|-------------------------------|
G|-8---6-----------6---5-----6-|-8-------6---8-------9---8---6-|
D|-----------------------------|-------------------------------|
A|-----------------------------|-------------------------------|
E|-----------------------------|-------------------------------|

РИФФ 2:

Гит.
E|-----------------------------|-------------------------------|
B|-----------------------------|-------------------------------|
G|-----------------------------|-----------------4p0-3p0-2p0-2-|
D|-0h2-2-2---2---0h2-2-2---2---|-0h2-2-2----2----------------2-|
A|-0h2-2-2---2---0h2-2-2---2---|-0h2-2-2----2----------------0-|
E|---------0---0---------0---0-|----------0---0----------------|

Гит.
E|--------------------------------|----------------------------|
B|--------------------------------|----------------------------|
G|--------------------------------|----------------------------|
D|-0h2-2-2---2----0h2-2-2----2----|-0h2-2-2---2-----7----5-----|
A|-0h2-2-2---2----0h2-2-2----2----|-0h2-2-2---2-5/7---75-------|
E|---------0---0-----------0---0--|---------0--------------3~~-|

Гит.
E|------------------------------|------------------------------|
B|------------------------------|------------------------------|
G|------------------------------|----------------4p0-3p0-2p0-2-|
D|-0h2-2-2----2---0h2-2-2---2---|-0h2-2-2---2----------------2-|
A|-0h2-2-2----2---0h2-2-2---2---|-0h2-2-2---2----------------0-|
E|----------0---0---------0---0-|---------0---0----------------|

Гит.
E|--------------------------------|----------------------------|
B|--------------------------------|----------------------------|
G|--------------------------------|----------------------------|
D|-0h2-2-2-----2----0h2-2-2---2---|-0h2-2-2-----2--------------|
A|-0h2-2-2-----2----0h2-2-2---2---|-0h2-2-2-----2---------7--5-|
E|-----------0---0----------0---0-|-----------0--------0--5--3-|

1КУПЛЕТ:

Вокал
E|-------------------------------------------------------------|
B|----------------------------------------3--------------------|
G|---4------4------4-------2---4-----5------------5------2---4-|
D|-------------------------------------------------------------|
A|-------------------------------------------------------------|
   Дай  мне   жить,   так как   я   хо -  чу.   Ес -ли

Бас
G|-----9-----9-----9-----|-------5--------5----------5---------|
D|---9-----9-----9-------|----5--------5---------5-------------|
A|-7-----7-----7-----0-2-|-3--------3--------3-----------3---2-|
E|-----------------------|-------------------------------------|

Вокал
E|-------------------------------------------------------------|
B|------------3------------------------------------------------|
G|--5----------------5--------4---2---4---2------4---2-------2-|
D|-------------------------------------------------------------|
A|-------------------------------------------------------------|
E| нет  -   у - бей.   Мне- е зде - есь те - ес - но.

Бас
G|----------2-----------4-----------5-----------7-|
D|------2-----------4-----------5-----------7-----|
A|--0-----------0-----------0-----------0---------|
E|------------------------------------------------|

G|---------9---12--9-----------8---11--12--11-----|
D|-----9---------------10--9-------------------12-|
A|-0----------------------------------------------|
E|------------------------------------------------|

Бас
  Зна - ю я,     я все-го  лишь гость.    На тво -
G|-----9-----9------9-----|-----5-----5-------------5---------|
D|---9-----9------9-------|---5-----5-----------5-------------|
A|-7-----7------7-----0-2-|-3-----3---------3-----------3---2-|
E|------------------------|-----------------------------------|

Вокал
E|-------------------------------------------------------------|
B|----------3---------------7-----------5----------8-------7---|
G|--5-------------5--------------------------------------------|
D|-------------------------------------------------------------|
A|-------------------------------------------------------------|
E| -ей   зем - ле     мне      нет     мес - та! -|

Бас
G|-----5-----5-----5-----5-|-----------------------------------|
D|---5-----4-----3-----2---|---------------------------7---4-3-|
A|-0-----0-----0-----0-----|-3-3---3-3-3---5---5---5-5---------|
E|-------------------------|-----------------------------------|

Гит.1
E|---------------|---------------------------------------------|
B|---------------|---------------------------------------------|
G|---------------|---------------------------------------------|
D|---------------|-5-----------5-----------------------7---4-3-|
A|---------------|-3---3---3-3-3-----------5---5---5-5-5-------|
E|---------------|---------------------------------------------|

ПРЕДПРИПЕВ:

Вокал
E|-------------------------------------------------------------|
B|-5------5--5--6-6---6----6----7--7---7---7---6---------------|
G|---------------------------------------------------5-----5---|
D|-------------------------------------------------------------|
A|-------------------------------------------------------------|
E| Здесь бродят тени, и - ми дви жет за -пах де - е - нег.-|

Гит.1
E|--------------------------------------------------|
B|--------------------------------------------------|
G|--------------------------------------------------|
D|--2---------------2-------3---------------3-------|
A|--0---0-0-0---0---0---0---0---0-0-0---0---0---0---|
E|--------------------------------------------------|

E|-----------------------------------------------|
B|-----------------------------------------------|
G|-----------------------------------------------|
D|-4---------------4-------3---------------3-----|
A|-0---0-0-0---0---0---0---0---0-0-0---0---0---0-|
E|-----------------------------------------------|

Вокал
E|-------------------------------------------------------------|
B|--5-------5---5---5--6-6----8----6--5------------------------|
G|---------------------------------------6-----6---------------|
D|-------------------------------------------------8-------7---|
A|-------------------------------------------------------------|
E| Боль  дру -гих и холод гре - ют и им  се - ерд - ца. -|

Гит.1
E|--------------------------------------------------|
B|--------------------------------------------------|
G|--------------------------------------------------|
D|--2---------------2-------3---------------3-------|
A|--0---0-0-0---0---0---0---0---0-0-0---0---0---0---|
E|--------------------------------------------------|

E|-------------------------------------------|
B|-------------------------------------------|
G|-------------------------------------------|
D|-4---------------4-----------3-------3---5-|
A|-0---0-0-0---0---0---0-------3-------3---3-|
E|-------------------------1---1---1---1-----|

Гит.1
Связь вре -мён   рас -па - лась, и зло - дей,
E|--------------------------------------------------|
B|--------------------------------------------------|
G|--------------------------------------------------|
D|--2---------------2-------3---------------3-------|
A|--0---0-0-0---0---0---0---0---0-0-0---0---0---0---|
E|--------------------------------------------------|

      и   свет -лый ге - е - ний
E|-------------------------------------------------|
B|-------------------------------------------------|
G|-------------------------------------------------|
D|-4---------------4-------3---------------3-------|
A|-0---0-0-0---0---0---0---0---0-0-0---0---0---0---|
E|-------------------------------------------------|

Вокал
E|----------------------------------------------------5--------|
B|--5--5---5--5----7-------7-----5--5---8---8--8--8--------7---|
G|-------------------------------------------------------------|
D|-------------------------------------------------------------|
A|-------------------------------------------------------------|
E| Тесно сплелись в объ - я - атьях, их различить нельзя! -|

Гит.1
E|--------------------------------------------------|
B|--------------------------------------------------|
G|--5---------------5-------------------------------|
D|--5---------------5-------2---------------2-------|
A|--3---3-3-3---3---3---3---2---------------2-------|
E|--------------------------0---0-0-0---0---0---0---|

E|-------------------------------------------------|
B|-------------------------------------------------|
G|-----------------7-------4-----------------------|
D|-----------------7-------4-----------------------|
A|-3---3---3---3---5-------2------------pow. slide-|
E|----------------------------------------/x-------|

ПРИПЕВ:

Вокал
E|----7---------------------------------7----------------------|
B|------8---7----8--------------------------8---7-----------8--|
G|-9---------------------9-------------------------------------|
D|-------------------------------------------------------------|
A|-------------------------------------------------------------|
E| Я не сошёл с у  - ма,        мир так стар      и -|

Гит.
E|----------------------------------------|--------------------|
B|----------------------------------------|--------------------|
G|-----------------/4---------------------|-5---/4-------------|
D|--2-------------------5---4-----------5-|-5-------5---4----5-|
A|--2-------------------------------------|-3------------------|
E|--0-------------------------------------|--------------------|

Вокал
E|-------------------------------------------------------------|
B|-7--------9----------------7-----------7-----------7---------|
G|-----9--------9---8---9------------9-----------9---------9---|
D|-------------------------------------------------------------|
A|-------------------------------------------------------------|
E|ма - ал, что е - го де - лить   нет боль - ше смыс - ла. -|

Гит.
E|-----------------|-------------------------------------------|
B|-----------------|-------------------------------------------|
G|-6---------------|-------------------------------------------|
D|-6--/6-----------|-------------4-----------5---------------3-|
A|-4------7--6---7-|-0---0-0-0---2---2-2-2---3---3---0h2h3---3-|
E|-----------------|-----------------------------------------1-|

Гит.
 Нет,        ты возьми      се - бе всё что на Зем-
E|-----------------------------------------|-------------------|
B|-----------------------------------------|-------------------|
G|-----------------/4----------------------|-5---/4------------|
D|--2-------------------5---4----------5---|-5-------5---4---5-|
A|--2--------------------------------------|-3-----------------|
E|--0--------------------------------------|-------------------|

Вокал
E|-------------------------------------------------------------|
B|--7---------9-------------------7-------7-------8---7--------|
G|------9---------9---8-----9---------9--------------------9---|
D|-------------------------------------------------------------|
A|-------------------------------------------------------------|
E| ле - е, мне  оставь прос - тор не -бес - ной вы - си. -|

Гит.
E|--------------------------------------------------|
B|--------------------------------------------------|
G|--6-----------------------------------------------|
D|--6--------------/6-------------------------------|
A|--4-------------------7---6-----------7-----------|
E|--------------------------------------------------|

E|-----------------------------------------------|
B|-----------------------------------------------|
G|-----------------------------------------------|
D|-------------4-----------5---------------------|
A|-0---0-0-0---2---2-2-2---3---3---0h2h3---6~~~~-|
E|-----------------------------------------------|

2 КУПЛЕТ:

Гит.1
    Лучше быть одному всю жизнь чем най-
E|----------------------|--------------------------------------|
B|----------------------|--------------------------------------|
G|----------------------|-5-------5------5---------------7-----|
D|-2----2----2----------|-5-------5------5---------------7-----|
A|-2----2----2------0-2-|-3-------3------3---------------5-----|
E|-0----0----0----------|------------------------------------0-|
   ти свой дом      и жить в нём с кем по - па - ло.

Гит.1
E|--------------------------------------------------|
B|--------------------------------------------------|
G|--2-----------4-----------5-----------7-----------|
D|--2-----------4-----------5-----------7-----------|
A|--0-----------2-----------3-----------5-----------|
E|--------------------------------------------------|

E|-----------------------------------------------|
B|-----------------------------------------------|
G|-----------------------------------------------|
D|---------2---5---2---------------4---5---4-----|
A|-----3---------------3---2---6---------------5-|
E|-0---------------------------------------------|

ПРЕДПРИПЕВ
ПРИПЕВ

РИФФ 3:

Гит.1
E||---------------------------------|--------------------------|
B||---------------------------------|--------------------------|
G||---------------------9---8---7---|-5----------3-----------4-|
D||-2-------------------9---8---7---|-5----------3-----------4-|
A||-2-------------------7---6---5---|-3----------1-----------2-|
E||-0-------------------------------|--------------------------|

Гит.1
E|----------------------------------|--------------------------|
B|----------------------------------|--------------------------|
G|----------------------------------|--------------------------|
D|--2-------------------8---7---6---|-5----------4-----------3-|
A|--2-------------------8---7---6---|-5----------4-----------3-|
E|--0-------------------6---5---4---|-3----------2-----------1-|

РИФФ 4:

Гит.1
E||-------------------------------------------------|
B||-------------------------------------------------|
G||-------------------------------------9---8---7---|
D||-2-2---2-2---2-----------2-2---2-2---9---8---7---|
A||-2-2---2-2---2-----------2-2---2-2---7---6---5---|
E||-0-0---0-0---0---0-0-0-0-0-0---0-0---------------|

E|-----------------------------------------------|
B|-----------------------------------------------|
G|-5-5---5-5---5-----------3-3---3-3---4-4---4-4-|
D|-5-5---5-5---5-----------3-3---3-3---4-4---4-4-|
A|-3-3---3-3---3---3-3-3-3-1-1---1-1---2-2---2-2-|
E|-----------------------------------------------|

Гит.1
E|--------------------------------------------------|
B|--------------------------------------------------|
G|--------------------------------------------------|
D|--2-2---2-2---2-----------2-2---2-2---8---7---6---|
A|--2-2---2-2---2-----------2-2---2-2---8---7---6---|
E|--0-0---0-0---0---0-0-0-0-0-0---0-0---6---5---4---|

E|-----------------------------------------------|
B|-----------------------------------------------|
G|-----------------------------------------------|
D|-5-5---5-5---5-----------4-4---4-4---3-3---3-3-|
A|-5-5---5-5---5-----------4-4---4-4---3-3---3-3-|
E|-3-3---3-3---3---3-3-3-3-2-2---2-2---1-1---1-1-|

SOLO:

ЧАСТЬ A:
Соло
гит.
E|-------------------------------------------------------------|
B|--10bend11----10^---10^---10^---10^---10^---10^-11r10p8------|
G|--------------------------------------------------------9~~~-|
D|-------------------------------------------------------------|
A|-------------------------------------------------------------|
E|-------------------------------------------------------------|

Гит.1
E|-------------------------------------------------------------|
B|-------------------------------------------------------------|
G|-----------------------------------------------9-----8-----7-|
D|-2--2---2--2---2---------------2--2---2--2-----9-----8-----7-|
A|-2--2---2--2---2---------------2--2---2--2-----7-----6-----5-|
E|-0--0---0--0---0---0--0--0--0--0--0---0--0-------------------|

Соло
гит.
E|-------------------------------------------------------------|
B|-------------------------------------------------------------|
G|-12p11p9-h11h12-12p11p9-h11h12-12p11p9-h11h12-12p11p9-h11-8~-|
D|-------------------------------------------------------------|
A|-------------------------------------------------------------|
E|-------------------------------------------------------------|

Гит.1
E|-------------------------------------------------------------|
B|-------------------------------------------------------------|
G|-5--5--5--5--5---------------3--3-----3--3-----4--4-----4--4-|
D|-5--5--5--5--5---------------3--3-----3--3-----4--4-----4--4-|
A|-3--3--3--3--3---3--3--3--3--1--1-----1--1-----2--2-----2--2-|
E|-------------------------------------------------------------|

Соло
гит.
E|-------------------------------------------------------------|
B|-15bend17....release--15----13----12----13-p12---------------|
G|------------slow-------------------------------14bend16~~~~~-|
D|-------------------------------------------------------------|
A|-------------------------------------------------------------|
E|-------------------------------------------------------------|

Гит.1
E|-------------------------------------------------------------|
B|-------------------------------------------------------------|
G|-------------------------------------------------------------|
D|-2--2--2--2--2---------------2--2-----2--2-----8-----7-----6-|
A|-2--2--2--2--2---------------2--2-----2--2-----8-----7-----6-|
E|-0--0--0--0--0---0--0--0--0--0--0-----0--0-----6-----5-----4-|

Соло
гит.
E|-------------------------------------------------------------|
B|-------------------------------------------------------------|
G|-0-0-0-0-0-0-0-h2-2-2-2-2-2-/4--4--4--4--4--4-/5--5--5--5--5-|
D|-------------------------------------------------------------|
A|-------------------------------------------------------------|
E|-------------------------------------------------------------|

Гит.1
E|-------------------------------------------------------------|
B|-------------------------------------------------------------|
G|-------------------------------------------------------------|
D|-5--5--5--5---5---------------4--4----4--4-----3--3-----3--3-|
A|-5--5--5--5---5---------------4--4----4--4-----3--3-----3--3-|
E|-3--3--3--3---3---3--3--3--3--2--2----2--2-----1--1-----1--1-|

Соло
гит.
E|--------------------------------------10----10-10-10----15~-|
B|--------------------------------------12----12-12-12--------|
G|--5-/7--7--7--7--7--7-/9--9--9--9--9------------------------|
D|------------------------------------------------------------|
A|------------------------------------------------------------|
E|------------------------------------------------------------|

Гит.1
E|-------------------------------------------------------------|
B|-------------------------------------------------------------|
G|-------------------------------------------------9-----8---7-|
D|-2--2---2--2---2---------------2--2-----2--2-----9-----8---7-|
A|-2--2---2--2---2---------------2--2-----2--2-----7-----6---5-|
E|-0--0---0--0---0---0--0--0--0--0--0-----0--0-----------------|

Соло
гит.
E|-10--10--10--15b17~~~---17p15p12-----------------------------|
B|-12--12--12-------------------17p15p12-----------------------|
G|------------------------------------14p12p9------------------|
D|------------------------------------------14p12p9------------|
A|------------------------------------------------12--10h12p10-|
E|-------------------------------------------------------------|

Гит.1
E|-------------------------------------------------------------|
B|-------------------------------------------------------------|
G|-5--5---5--5--5--------------3--3-----3--3-----4--4-----4--4-|
D|-5--5---5--5--5--------------3--3-----3--3-----4--4-----4--4-|
A|-3--3---3--3--3--3--3--3--3--1--1-----1--1-----2--2-----2--2-|
E|-------------------------------------------------------------|

Соло
гит.
E|---------------------------T-----12h15h17-17p15p12-|
B|--------------T-----10/12h15-17p12h15--------------|
G|-----9h12-14p9h12----------------------------------|
D|---------------------------------------------------|
A|---------------------------------------------------|
E|-12------------------------------------------------|

E|---------------------|
B|-17p15p12------------|
G|----14p12p9-14p12p9--|
D|-------------14p12p9-|
A|---------------------|
E|---------------------|

Гит.1
E|-------------------------------------------------------------|
B|-------------------------------------------------------------|
G|-------------------------------------------------------------|
D|--2--2-----2--2---2---------------2--2-----2--2----8---7---6-|
A|--2--2-----2--2---2---------------2--2-----2--2----8---7---6-|
E|--0--0-----0--0---0---0--0--0--0--0--0-----0--0----6---5---4-|

Соло
гит.
E|------------------12----14----15----17----15---17---17b19~~~-|
B|-------------------------------------------------------------|
G|-12~~~~~~~~~~------------------------------------------------|
D|-------------------------------------------------------------|
A|-------------------------------------------------------------|
E|-------------------------------------------------------------|

Гит.1
E|-------------------------------------------------------------|
B|-------------------------------------------------------------|
G|-------------------------------------------------------------|
D|--5--5-----5--5-----5---------------4--4---4--4---3--3--3--3-|
A|--5--5-----5--5-----5---------------4--4---4--4---3--3--3--3-|
E|--3--3-----3--3-----3---3--3--3--3--2--2---2--2---1--1--1--1-|

ЧАСТЬ B:

Гит.2
E|-----------------------------------------|-------------------|
B|-----------------------------------------|-------------------|
G|--9-----------------------11----------12-|-11bend12----9---8-|
D|-----------------------------------------|-------------------|
A|-----------------------------------------|--slow bend--------|
E|-----------------------------------------|-------------------|

Гит.1
E|--------------------------|----------------------------------|
B|--------------------------|----------------------------------|
G|--------------------------|----------------------------------|
D|--2---2-------4---4-------|-5---5---------2---2--------------|
A|--2---2-------4---4-------|-5---5---------2---2--------------|
E|--0---0---0-0-2---2---0-0-|-3---3-----3-3-0---0----------0-0-|

Гит.2
E|--------------------------|----------------------------------|
B|--------------------------|----------------------------------|
G|-9---11---9---8~~~~~------|----------------------------------|
D|--------------------------|-10------------------9------------|
A|--------------------------|-------------------------10-----9-|
E|--------------------------|----------------------------------|

Гит.1
E|--------------------------|----------------------------------|
B|--------------------------|----------------------------------|
G|--------------5---5-------|----------------------------------|
D|--2---2-------5---5-------|-7---7-------------------5------4-|
A|--2---2-------3---3-------|-7---7-------------------5------4-|
E|--0---0---0-0---------0-0-|-5---5---------------5-5-3------2-|

ПРЕДПРИПЕВ
ПРИПЕВ (2 раза)
играть пол-РИФФА №2
 
 

Видео