Ария - Игра с огнём, аккорды

Прокрутка
Тональность
Шрифт
100
Em
Грянул хор и качнулся храм,
       Am
Смерть пришла за мной в пять часов утра-
     C              D        Em
Боль рванула грудь, сразу стал свободен я.
 Em
Лица шлюх из миланских лож,
     Am
Лица старых дев сводит злобы дрожь
     C          D           Em
Им бы плоть мою растерзать средь бела дня.
 Am
Я был им как в горле кость,
 C
Я видел их всех насквозь,
 D
Я злостью платил за злость!
 Em         D
Эй! Я для них злодей!
       C           Am
Знающий секрет, низменных страстей-
 G Fm  Em
Нищих и царей.
 Em     D              C
Я был скрипачом, мой талант мой грех-
       Am   G  Fm    Em
Жизнью и смычком, я играл с огнём!
 
Нет клейма на душе моей,
Кроме господа я не знал царей,
Но на скрипке мне выжег мастер тайный знак.
И змеёй пущен черный слух,
Что смычком моим правит адский дух,
А мой лучший друг- гений тьмы сам сатана!

Он был мне как в горле кость,
Он в сердце будил лишь злость,
Он стоил кровавых слёз.

Эй! Я для них злодей!
Знающий секрет, низменных страстей-
Нищих и царей.
Я был скрипачом, мой талант мой грех-
Дьявол не причём, я играл с огнём!

----------------------
----------------------
-2------2-1----2--2-1-
----------------------
----------------------
----------------------
 Эй, скрипач, ты горяч.
----------------------
----------------------
----------------------
-4----4--3----3--0----
----------------------
----------------------
Как всегда строптив.
----------------------
----------------------
-2--2---1----2--2---1-
----------------------
----------------------
----------------------
Ты не прав, ты как раб
----------------------
----------------------
----------------------
-4--4---3--3--0-------
----------------------
----------------------
Мой играл мотив.
     A                 Dm
Ты не хочешь знать, что гений это я!
     A                 Dm
Ты же мой футляр, ты платье для меня!
   D7   Dm   D7 D   Dm    D   Dm
Скрипач! Пой и плач, и хвались игрой.
 Dm   D7 Dm      D7
Все равно, мертв ты давно,
 D    Dm     D   Dm
Что нам род людской?
     A                     Dm
Им бы пить и жрать в три горла день и ночь,
       A                Dm
И будь ты трижды гений им нельзя помочь!

 Dm         C              Bb
Но спустись на дно, пряча в струнах смех,
         Gm   F   Em    Dm
Сделай звук вином, сокруши мой трон!
 Dm     C              Bb
Адским скрипачом, станешь без помех
       Gm   F  Em    Dm
Мы тебя поймём- там играй с огнём.
 
 
Свернуть Распечатать

Видео