Авторские песни - Безжалостная любовь (Альриан), аккорды

Прокрутка
Тональность
Шрифт
100
Для гитарлеле (для гитары - каподастр на 5-й лад)

INTRO:
   F
A|------------------------------------
E|-------3---1-0-h-1-------3----1-p-0-
C|-----0-----------------0------------
G|---2-----------------2--------------
D|-3-----------------3----------------
A|------------------------------------

   Dm
A|-------------------------------0
E|-------1-(000)-h-1-------0---1--
C|-----2-----------------2--------
G|---2-----------------2----------
D|-0-----------------0------------
A|--------------------------------

   Bb
A|---------------------------------------------
E|---------------------------------------------
C|---------------------------------------------
G|-----2-h-3---2-/-5--3-----2-h-3---2-/-7--5-
D|---3---------------------3-------------------
A|-1---------------------1---------------------

   C
A|-------------------
E|-------------------
C|-------0-----------
G|-----0---0---------
D|---2-------2-------
A|-3-----------(333)-

RIFF 1:          RIFF 2:
A|-(777)-5-3-5-  A|-3-3-3-5-7-
E|-(000)-0-0-0-  E|-0-0-0-0-0-

Intro, riff 1

 F                    Dm
Мир, улыбаясь из облаков
                     Bb
Полурадугой в сентябре,
                    Am
Раскрывает любви объятья.
 F                           Dm
День в этой серой ночной толпе
                   Bb
Ароматом ленивых снов
                        C
Так и манит мечтать о счастье.

     Riff 2

     Bb                           Am
     Эх, мне бы высказать всё сейчас,
                                Bb
     Чтоб не думать всю ночь о ней,
                             F
     Только сложно о ней не думать.
       Bb                        C
     Здесь перекресток ночных огней
                          F
     В светофорах я вижу нас.
                              A
     Может, в мире другом мы будем вместе?

Riff 1

Знак бесконечности не предел
Этим песням о злой любви,
Что бывает нередко доброй.
Свет приближающейся зари
Посреди одиноких стен
Растворяется каплей в море.

     Припев.

Пусть перспективы и шансов нет,
Да не стоит о том жалеть,
Ибо счастье в мгновеньях редких.
Луч, я прошу, продолжай гореть,
Будь звездой моей в тайнах лет,
Истину освещая метко.

     Припев.

Riff 1, F

Комментарий автора:

Апликатуры аккордов (от 1-й к 6-й струнам)
F: 010233 (его везде можно чередовать с 000233)
Dm: 01220x (перед ним играем 00220x)
Bb: 112331 (после него играем 312331)
Am: 000220 (после него - 500220)
C: 300023 (чередуем - 500023)
A: 001220
 
 
Свернуть Распечатать