Авторские песни - Ночной портрет (Альриан), аккорды

Прокрутка
Тональность
Шрифт
100
Intro: Fmaj7 Emsus4 G5 Dsus2 
       Fmaj7 Em Dsus2

    Dm                G7sus2    Dsus2
Случайной встречи взгляды ни о чём,
      Bbmaj7       Gsus2      Dsus2
Не к месту время приобщилось тайно.
    Em       G5       Dsus2
Открытое внимания ключом,
      Fmaj7        Emsus4      C6/9
В темнице чувств оно кричало "майна".

Там тешились надежды коньяком:
Они уже изрядно опьянели.
Там забавлялись мысли "дураком",
Как будто больше думать не умели.

Художник там творил в ночи портрет:
О ней ещё поэты не писали.
И сердце отдавало дОлги лет,
Но те долгИ пока не принимали.

Наступит утро, сгинет балаган -
Надежды с мыслями не скоро протрезвеют:
Во многом притягательный туман
Их холодом обманчиво согреет.

Лицо с портрета смотрит на сие.
Художник пишет вовсе без натуры:
Живут так остро в нём детали все
Известной расшифровкой аббревиатуры.

Solo:
[ Part 1 ] 
Dsus2 G F G
A|-------------------------------0-----------------------------|P|-7|
E|--0-1-3-1-0h1p0---0-1-3-1-0h1p0----1-0-1-0h1p0----------1/3-1|A|5-|
C|-2-------------2-2----------------2--------------2/4-2-0-----|R|--|
G|---------------------------------3------------3-0------------|T|--|
D|0------------------------------------------------------------| |--|
A|----------------3---------------1----------------------------|1|--| 

Так мало смысла в множествах мазков,
Напрасно на холсте запечатленных,
Произнесённых   долготой часов,
Замеченных везде и несомненных...

Художник сотворил к утру портрет.
Поэты, не увидев, не писали.
А сердце отдавало дОлги лет -
Его долгИ уже не принимали.

Coda:
A|-----------------0-------12-0-----|
E|---0-1-3-1-0h1p0---10-12-12-0-----|
C|--2----------------9--12----2-0h2-|
G|----------------------------2-0h2-|
D|-0--------------------------0-----|
A|----------------------------0-----|

Комментарий автора:

Перебор: бас-3-2-3-1-3-2-3
Аккорды (каподастр на V ладу, от 6-й к 1-й):
Fmaj7:  x 8 x 10 5 5
Emsus4:    x 2 x 9  8 5
G5:     x x 5 7  8 10
Dsus2:  x 5 x 7  5 5
Em:     x 7 x 7  8 7
Dm:     x 5 x 7  6 5
G7sus2: x x 5 7  6 5
Bbmaj7: x x 8 7  6 5
Gsus2:  x x 5 7  8 5
C6/9:   8 x x 7  5 5
 
 
Свернуть Распечатать