Авторские песни - Не стоит (Альриан), аккорды

Прокрутка
Тональность
Шрифт
100
Capo V

  Intro            [4 р.]  Riff 1    Riff 2
A|---------7-5-3-2-[3-2-]-|-5-3-2---|-7-5--|
E|-----0------------------|-------3-|------|
C|---0---0--0-0-0-0[-0-0]-|--0-0-0-0|--0-0-|
G|------------------------|---------|------|
D|------------------------|---------|------|
A|-0----------------------|---------|------|

    F Fsus2       Am ** Amsus4 
Мосты   и города,
    F  Fmaj7         Am ** Am13
Встречи     в расставанье.
     C          Em       F   Am
Нам жизнь лишь дарит обещанья,
                    C   G
Бессмысленность мечтаний
              Am   Riff 1
Да вечное познанье.

    C                Em           F
   Жизнь жаворонков легче, чем у сов,
                    Am Riff 2
   Ну и что же с того?
    C              G       Am* Riff 1
   Разве она не дана им обоим?
      F              G        Em        Am
   Небесной птице жалеть не стоит, не стоит,
          C          G        Am Riff 1
   Что кому-то чуть больше везёт.

Дни плывут по неделе.
Может быть, их поймёшь; поймёшь,
Что не зря недели летели и птицы не пели.
А зависть и ложь
Уже не вернёшь.

   Припев

  Solo:
   F          Am                   Am              Em
A|----------------5-3-2-0---------0----5-7-C---5-3-----3-2--
E|---1-3-1-0----0----------1-3-1-0---0-------0-------3------
C|--0-0-----0--0-0--------0-0-------0-0-0-0-0-0-0-0-4-4-4-4-
G|----------------------------------------------------------
D|-3---------------------3-------------------------2--------
A|------------0--------------------0-------3----------------

 F         Am      C       G         Am
---------------7-8-----3-2-G---5-3-2------f12---7----|
---1-3-1-0---0-------0-------3------3--0----f12--8-5-|
--0-0-----0-0-0-0-0-0-0-0-0-2-2-------0-0----f12----4|
---------------------------0-------------------------|
-3---------------------------------------------------|
-----------0-------3-----------------0---------------|

   Припев

  Coda:
A|------------5-3-------------5-7-5-3-----------5-3-----0-f12|
E|--1-3-1---0-------1-3-1---0----------1-3-1--0------1-3--f12|
C|-0-0-0-0-0-0-0-0-0-0-0-0-0-0--------0-0----0-0----0-0---f12|
G|-----------------------------------------------------------|
D|3---------------3------------------3-------------3---------|
A|--------0---------------0-----------------0----------------|

Комментарий автора:

Перебор: бас 3 2 3 1 3 2 3
Играем только отмеченные в нижеприложенных аппликатурах ноты.
Аккорды (Capo V, от 6-й к 1-й):
F:     x 3 x 0 1 0
Fsus2:    x 3 x 0 3 0
Am **:  0 x x 0 0 7
Amsus4:   0 x x 2 0 3
Fmaj7: x 3 x 0 0 0
Am13:  0 x x 2 0 5
C:     3 x x 0 0 3
Em:    x 2 x 4 3 2
Am:    0 x x 0 0 0
G:     x x 0 3 2 3
Am*:   0 x x 0 0 3
 
 
Свернуть Распечатать