Авторские песни - Страшная история (Марк Ивченко), аккорды

Прокрутка
Тональность
Шрифт
100
Вступление: x2
1)---0---------0---------0---------0-----
2)-----0/1/0-----0---------0/1/0-----0---
3)-----------2-----2-------------0-----0-
4)---------------------------------------
5)-0-------------------3-----------------
6)---------------------------------------

1)---0---------0---------0---------0-----
2)-----0/1/0-----0---------0/1/0-----0---
3)-----------0-----0-------------0-----0-
4)---------------------------------------
5)---------------------------------------
6)-0-------------------3-----------------

Asus2
Однажды, в ночь, перед сном
Cmaj7
Услышал короткий я звон
Em
Страх меня осаждал
G6
Ведь никого я не ждал

Asus2
Вышел из комнаты я
Cmaj7
И тихо к двери подойдя
Em
Мельком я глянул в глазок
G6
Увиденное повергло меня в шок

Asus2
Большой кровавый глаз
Cmaj7
Темный до жути окрас
Em
В душу он мне заглянул
G6
И назад чуток отшагнул

Asus2
Увидел его я лицо
Cmaj7
Не похож он был на жильцов
Em
Дрожь пробила меня
G6
Рассудок во мне хороня

Asus2
Вдруг погас свет
Cmaj7
Разум сказал "нет,
Em
Это всё просто сон,
G6
Но с чего же исходит он"

Asus2
Слышу я звук шагов
Cmaj7
И лязг железных оков
Em
Он зашел в мою дверь
G6
Что же мне делать теперь

Asus2
Раздался громкий крик
Cmaj7
Совсем я головою поник
Em
Смерть пришла ко мне
G6
Сейчас я с ней наедине

Asus2
Я закрыл глаза
Cmaj7
Близок я до конца
Em
Оно стало что-то шептать
G6
Из его слов я смог разобрать:

Asus2
"Убирайся отсюда прочь
Cmaj7
Или тебе никто не сможет помочь

Проигрыш: Em G6

Asus2
И вот, спустя неделю
Cmaj7
Живу, в другом я уделе
Em
Но эту историю я вспоминаю
G6
И место то проклинаю

Комментарий автора:

Каждый аккорд играть перебором Б-1-2-3 по 4 раза или просто ударами вниз
 
 
Свернуть Распечатать