Авторские песни - Ёбаный хуй (by Жидкости), аккорды

Прокрутка
Тональность
Шрифт
100
Intro: Bm | D6(no5) | Gmaj7 | Bm/F# 

  Bm7 Gmaj7   Dsus4 F#7 
Тебя ебать бы я   хотел 
 Bm7     Gmaj7 Dsus4 F#7 
Устроить танец наших тел 
  Bm7  Gmaj7     Dsus4  F#7 
И наплевать, что ты больна 
    Bm7    Gmaj7 Dsus4 F#7 
Я б всё равно сношал тебя 

G    Bm     Dsus4 
Сядь мне на хуй 
G Bm    Dsus4 
Ё-баный хуй 
G  Bm     Dsus4 
Ты на мой хуй 
G Bm    Dsus4 
Ё-баный хуй 

Bm7      Gmaj7 Dsus4 F#7 
Но к сожалени--ю,  ребят 
    Bm7     Gmaj7 Dsus4 F#7 
Две строчки я не  напи--сал 
  Bm7 Gmaj7 Dsus4 F#7 
И я поеду в Аба---кан 
    Bm7    Gmaj7  Dsus4 F#7 
Где сядешь ты мне на  кукан 

G Bm      Dsus4 
Сядешь на хуй 
G Bm    Dsus4 
Ё-баный хуй 
G  Bm     Dsus4 
Ты мне на хуй 
G Bm    Dsus4 
Ё-баный хуй 

Соляга: (L — связанные доли) 
E|--2-----3-----------0-------|-----0-----2--0-------------| 
B|-----------3--2--3-----0L---|--0--------------3----------| 
G|----------------------------|--------------------3-------| 

--------0-----------0--2L---|--2--2--0-------------------| 
--0--------2--3--3----------|-----------3--2-----0-------| 
----------------------------|----------------------------| 

--2-----3-----------0-------|-----0-----2--0-------------| 
-----------3--2--3-----0L---|--0--------------3----------| 
----------------------------|--------------------3-------| 

--------0-----------0--2L---|--2--2--0-------------------| 
--0--------2--3--3----------|-----------3--2-----0-------| 
----------------------------|----------------------------| 

--3--2--0--3--2--0--3--2----|--0--3--2--0--3--2--0-------| 
----------------------------|----------------------------| 
----------------------------|----------------------------| 

--3--2--0-----------0--2L---|--2--2--0-------------------|-------|-------|| 
-----------2--3--3----------|-----------3--2-------------|--0L---|--0----|| 
----------------------------|--------------------4-------|-------|-------|| 

  Bm       G    D   F#aug 
И вот я приехал в Абакан 
   Bm  G        D   F#aug 
Распаковал свой чемодан 
  Bm      G        D     F#aug 
И мельком взглянул на кровать 
  Bm      G   D     F#aug 
И вот что я хочу сказать 

Gmaj7 Bm7    D6 (D7sus4) 
Сядь  мне на хуй 
Gmaj7 Bm7 D6 (D7sus4) 
Ё-----баный хуй 
Gmaj7 Bm7    D6 (D7sus4) 
Ты    на мой хуй 
Gmaj7 Bm7   D6 (D7sus4) 
Ё-----баный хуй 

Outro: Bm7 | Gmaj7 | D (Dsus4) | F#       

Комментарий автора:

Не смотреть аппликатуры справа, они неправильные
Бой: 
↑-↑↓↑↓↑↓ (одна четверть вниз и шесть восьмых вниз-вверх типа, ну понятно да)
Перебор:
|I - VIII V|I V VIII V| несколько раз, потом
|I - III(8va) VIII|I VIII III(8va) VIII| 
 
 
Свернуть Распечатать

Видео