Авторские песни - Лезгинка - соло (Роберт Варданян), аккорды

Прокрутка
Тональность
Шрифт
100
1|------0-1-0------0-0-0--------------------0----------------------
2|----1-------1----------3-1-3-0--------0-3---3-0---3-3---3-0-1-0--
3|2-2-----------2----------------0--0-0-----------0-----0---------2
4|-----------------------------------------------------------------
5|-----------------------------------------------------------------
6|-----------------------------------------------------------------

1|------0-1-0------0-0-0--------------------0----------------------
2|----1-------1----------3-1-3-0--------0-3---3-0---3-3---3-0-1-0--
3|2-2-----------2----------------0--0-0-----------0-----0---------2
4|-----------------------------------------------------------------
5|-----------------------------------------------------------------
6|-----------------------------------------------------------------

1|0-0-0------0-0-0-----0-0-0-------------------------------------------------------
2|------3-1--------3-1-------3-1-3-0-----3-3--3-1-0---3-3--3-1-0---3-3--3-1-0-1-0--
3|-----------------------------------0--------------------------------------------2
4|---------------------------------------------------------------------------------
5|---------------------------------------------------------------------------------
6|---------------------------------------------------------------------------------

1|0-0-0------0-0-0-----0-0-0-------------------------------------------------------
2|------3-1--------3-1-------3-1-3-0-----3-3--3-1-0---3-3--3-1-0---3-3--3-1-0-1-0--
3|-----------------------------------0--------------------------------------------2
4|---------------------------------------------------------------------------------
5|---------------------------------------------------------------------------------
6|---------------------------------------------------------------------------------

1|------0-1-0------0-0-0--------------------0----------------------
2|----1-------1----------3-1-3-0--------0-3---3-0---3-3---3-0-1-0--
3|2-2-----------2----------------0--0-0-----------0-----0---------2
4|-----------------------------------------------------------------
5|-----------------------------------------------------------------
6|-----------------------------------------------------------------

1|------0-1-0------0-0-0--------------------0----------------------
2|----1-------1----------3-1-3-0--------0-3---3-0---3-3---3-0-1-0--
3|2-2-----------2----------------0--0-0-----------0-----0---------2
4|-----------------------------------------------------------------
5|-----------------------------------------------------------------
6|-----------------------------------------------------------------

1|0-0-0------0-0-0-----0-0-0-------------------------------------------------------
2|------3-1--------3-1-------3-1-3-0-----3-3--3-1-0---3-3--3-1-0---3-3--3-1-0-1-0--
3|-----------------------------------0--------------------------------------------2
4|---------------------------------------------------------------------------------
5|---------------------------------------------------------------------------------
6|---------------------------------------------------------------------------------

1|0-0-0------0-0-0-----0-0-0-------------------------------------------------------
2|------3-1--------3-1-------3-1-3-0-----3-3--3-1-0---3-3--3-1-0---3-3--3-1-0-1-0--
3|-----------------------------------0--------------------------------------------2
4|---------------------------------------------------------------------------------
5|---------------------------------------------------------------------------------
6|---------------------------------------------------------------------------------

Комментарий автора:

Lezginka 
 
 
Свернуть Распечатать