Авторские песни - Нах0й это надо (by Domgriss), аккорды новинка

Прокрутка
Тональность
Шрифт
100
Am                           F
Когда я умру, ты будешь грустить,
C              G
Прошу не надо, я тебя
Am                    F
Эта жизнь не стоит того
C           G
Чтобы заливать её ядом 

Am                        F
Я не знаю как ты дальше будешь жить одна
C                  G
Без меня, день от дня 
Am                     F 
Я не буду знать как у тебя дела 
C                     G
Буду помирать один без тебя 

Припев:
Am                         F
На х*й это надо, ты сама подумай 
C                    G
Дальше будет хуже, я тебе не вру 
Am                    F
Буду я лежать в своей могилке
C                   G
Ну а ты полезешь в петлю-ю-ю...

Am                       F
Ну зачем сейчас, нам об этом нам говорить 
C                  G
Буду я тебя одну крепко любить 
Am                F
Даже если так, и найдётся человек 
C               G
Буду я ему благодарен на век

Am
Но не смогу забыть 
F         C        G
Те глаза, те губы, те слёзы
Am                F
Что ты пролила за меня и себя 
C          G
Но пойми, что жить не поздно 

Припев:
Am                         F
На х*й это надо, ты сама подумай 
C                    G
Дальше будет хуже, я тебе не вру 
Am                    F
Буду я лежать в своей могилке
C                   G
Ну а ты полезешь в петлю-ю-ю...
Am                F
На х*й это надо, ты сама подумай 
C                G
Буду умирать я, в гордом одиночестве 
Am              
Про меня не кто не вспомнит 
F                 C
Всем наплевать, но ты придёшь 
G
Чтобы на х*й меня посла....
Am F C G 
На ху*й посла...
Am F C G 
На х*й послать 

Outro: Am F C G Am F C G С              

Комментарий автора:

Вступление:
1.-----------------------0----------------------------------x
2.-----------1---------------------1-----------------------x
3.------2---------2----------2-----------2----------------x Аккорд Am
4.--2-------------------------------------------------------x
5.-----------------------------------------------------------x
6.-----------------------------------------------------------x

1.-----------------------0----------------------------------x
2.-----------0---------------------0-----------------------x
3.------2---------2----------2-----------2----------------x  Аккорд F
4.--3-------------------------------------------------------x
5.-----------------------------------------------------------x
6.-----------------------------------------------------------x

1.-----------------------0----------------------------------x
2.-----------1---------------------1-----------------------x
3.------0---------0----------0-----------0----------------x Аккорд C
4.-----------------------------------------------------------x
5.-3---------------------------------------------------------x
6.-----------------------------------------------------------x

1.-----------------------3----------------------------------x
2.-----------0---------------------0------------------------x
3.---------------0----------0-----------0------------------x Аккорд G
4.-----------------------------------------------------------x
5.-----------------------------------------------------------x
6.--3-------------------------------------------------------x
Куплеты
1.-----------------------------------------------------------x
2.----------------------1-----------------------------------x Аккорды Am F C G 
3.-----------1---------------------1-----------------------x
4.------1---------1----------1-----------1----------------x 
5.--1-------------------------------------------------------x
6.-----------------------------------------------------------x

В припевев бой: 6-ка

моя первая песня) не судите строго 
 
 
Свернуть Распечатать