Авторские песни - Огоньки любви (by Андрей Касименко), аккорды

Прокрутка
Тональность
Шрифт
100
Riff А:
(играется допом к основному бою)
(это играется только на стоке:*)
1)--1---0---3---3---
2)-3---1---0---0----
3)------------------
4)------------------
5)------------------
6)------------------

Riff В:
(играется допом к основному бою)
(это играется только в конце вместе с проигрышем)
1)--1----1---0----0---3----3---3----3---
2)-3--3-3---1--1-1---0--0-0---0--0-0----
3)--------------------------------------
4)--------------------------------------
5)--------------------------------------
6)--------------------------------------

G      F           C     C
Осень, так глубоко вокруг.
G  F           C     C
Я, так по тебе скучаю.
G   F           C      C
Ты, мне улыбнешься вдруг.
G  F          C     C
Я, я же люблю я знаю.

Припев:
Dm       C     Am        G
Листья, жёлтые как огоньки.
Dm    C       Am
Днем, для нас мерцают.
Dm    C           Am        G
Мы, друг от друга так далеки.
     Dm        C         Am
Но любовь сильнее время, она все понимает.*

G    F               C      C
Все, разноцветное стало вдруг.
G      F                C  C
Дождь, вся красота приуныла...
G             F       C      C
Мыслям в тоске, не найти приют.
      G           F        C            C
Ведь все без тебя, все вокруг мне не мило.

Припев:
Dm       C     Am        G
Листья, жёлтые как огоньки.
Dm    C       Am
Днем, для нас мерцают.
Dm    C           Am       G
Мы, друг от друга так далеки.
     Dm        C         Am
Но любовь сильнее время, она все понимает.*

Проигрыш: G Dm Am Am }x2

Комментарий автора:

Бой: вниз-вниз-вверх вверх-вниз-вверх
 
 
Свернуть Распечатать