Авторские песни - Звезда (by ОСД "Андромеда"), аккорды

Прокрутка
Тональность
Шрифт
100
e|-----0-------------|------0-------------|------0-------------|-------1-------------|
B|-------------------|--------------------|--------------------|---------------------|
G|---0---0----0---0--|----2---2----2---2--|----0---0----0---0--|-----2---2----2---2--|
D|--------------2----|---------------2----|---------------2----|----------------3----|
A|-3-----------------|--0-----------------|--2-----------------|--3------------------|
E|-------------------|--------------------|--------------------|---------------------|

e|-----0-------------|------0-------------|------0-------------|-------1-------------|
B|-------------------|--------------------|--------------------|---------------------|
G|---0---0----0---0--|----2---2----2---2--|----0---0----0---0--|-----2---2----2---2--|
D|--------------2----|---------------2----|---------------2----|----------------3----|
A|-3-----------------|--0-----------------|--2-----------------|--3------------------|
E|-------------------|--------------------|--------------------|---------------------|

e|-----0-------------|
B|-------------------|
G|---0---0----0---0--|
D|--------------2----|
A|-3-----------------|
E|-------------------|
Каждый отряд нашей зимней акции
e|------0-------------|
B|--------------------|
G|----2---2----2---2--|
D|---------------2----|
A|--0-----------------|
E|--------------------|
Прекрасен по-своему, такая есть информация
e|------0-------------|
B|--------------------|
G|----0---0----0---0--|
D|---------------2----|
A|--2-----------------|
E|--------------------|
Сотни историй и все не похожи
e|-------1-------------|
B|---------------------|
G|-----2---2----2---2--|
D|----------------3----|
A|--3------------------|
E|---------------------|
От холода опять мурашки по коже

 C
Но греют эмоции в зимнюю пору
 Am
Труд, улыбки, тёплые разговоры
 Em
Отрядов в России, словно в небе ночном
 F                               F
Звёзд и рассказ мы с нашей начнем

 C
Мы знаем, что дальше
 Am
Предназначено судьбою бойцам
 Em
Это смелость, удача
 F
Идущая по снежным следам
 C
Мы в снежном десанте
 Am
Из дружных рук составим звезду
 Em
В сплочённой команде
 F
Наберём мы высоту

 C
Моя звезда Андромеда
 Am
Что указала мне путь 
 Em
Не страшна никакая проблема
 F                        F
Нам вместе с пути не свернуть
 C
Десять дней она нас водила
 Am
По районам и деревням
 Em
И лишь веру в себя мне сулила
 F                     F
И охраняла сон по ночам

 C
Мы знаем, что дальше
 Am
Предназначено судьбою бойцам
 Em
Это смелость, удача
 F
Идущая по снежным следам
 C
Мы в снежном десанте
 Am
Из дружных рук составим звезду
 Em
В сплочённой команде
 F
Наберём мы высоту

 C
Пятнадцать разных судеб
 Am
Сплелись в январе в одну нить
 Em                    F
И никогда не забудем, что значит бок о бок нам жить
 C
Что значит вставать новым утром
 Am
И встречать морозный рассвет
 Em
И словно волшебным чудом
 F                            F
С Андромедой нести людям свет

 C
Мы знаем, что дальше
 Am
Предназначено судьбою бойцам
 Em
Это смелость, удача
 F
Идущая по снежным следам
 C
Мы в снежном десанте
 Am
Из дружных рук составим звезду
 Em
В сплочённой команде
 F
Наберём мы высоту


 C
Мы знаем, что дальше
 Am
Предназначено судьбою бойцам
 Em
Это смелость, удача
 F
Идущая по снежным следам
 C
Мы в снежном десанте
 Am
Из дружных рук составим звезду
 Em
В сплочённой команде
 F
Наберём мы высоту

Комментарий автора:

Каподастр на 3-ем ладу
 
 
Свернуть Распечатать