Авторские песни - Дождь - by AlphaCR, аккорды новинка

Прокрутка
Тональность
Шрифт
100
Вступление
(Fl) 
E----0--3----3--2---3--0-----3--2--3--0----------------------------
B-----------3-----------------5------------------------------------
G------------------------------------------------------------------
D------------------------------------------------------------------
A------------------------------------------------------------------
E-------------------------------------------------0--3--2--3--0----
Am G Dm Am

Am
Окна смотрят вдаль. 
G
Солнце смотрит вниз. 
Dm
А за домом фестиваль.
Am
И падает капля вниз. 
C
И за окном капель, 
E
И за нами апрель! 
Am
И закрой за мной дверь! 
Em
И мне поверь! 

Припев
Am
Я попаду под дождь,
G
Я попаду под снег. 
Dm
И ты только забудь, 
Am
Про ночлег! 
C
Ведь будет побег! 
E
От Вождя... Дождя... 

Am
И ты готовишь план
G
Побега от Него! 
Dm
И этот план, будет сдан.
Am
План нашего побега! 
C
От Него... 

Припев
Am
Я попаду под дождь,
G
Я попаду под снег. 
Dm
И ты только забудь, 
Am
Про ночлег! 
E
Ведь будет побег! 
C             Em
От Вождя... Дождя... 


E----0--3----3--2---3--0-----3--2--3--0----------------
B-----------3-----------------5--------------------------------
G-----------------------------------------------------------------
D------------------------------------------------------------------
A------------------------------------------------------------------
E-------------------------------------------------0--3--2--3--0

Am (Fl)  

Комментарий автора:

Бой: вверх-вниз, (Fl)- флажолет на двенадцатом ладу, припев можно чуть чуть ускорять. Удачи в игре) 
 
 
Свернуть Распечатать